Strona główna
Newsy
Biografia
Dyskografia
Teledyski
Książki
Artykuły, wywiady
Galeria
Teksty piosenek
Znaczenia piosenek
Koncerty
Zdjęcia autorstwa BA
FAQ
Księga gości


AUTORZY:
Margo
& (webmaster):
Victoria

© 2002
Akordy i tabulatory


Hidin' from love 


Intro: E B | A C#m | B | B | x4 
  
Verse 1: 
E                     B 
I'm ridin' in the middle 
C#m            A 
Halfway into you 
E                        B 
And halfway into something else 
C#m                         A 
I don't know what to do 
E                           B 
Said you'd make it easy 
C#m                      A 
Said you'd take the time 
            E 
But you call it off 
B                            A 
Before I change my mind 

Chorus 1: 
                    E        B 
Cause you're not decidin' 
           A    C#m          B 
You're only hidin' from love 
        E         B 
You can't deny it 
           A     C#m         B 
You're only hidin' from love 

Verse 2: same as verse 1 
Well I've been making changes 
But you've been changing too 
You were hoping love was something else 
I was hoping it was you 
You said you'd make it easy, 
Babe you said you'd make the time 
But you call it off before I change my mind 

Chorus 2: same as chorus 1 
Cause you're not decidin' 
You're only hidin' from love you can't deny it 
You're only hidin' from love 
I know you're tryin' but 
You're only hidin' from love you say 
You're shy but you're only hidin' from love 

E B | A C#m | B | B | 

Solo: 
b = bend 1 tone 
br = bend 1 tone then release 
b = pre-bend 1 tone 

     E    B A            C#m              B                                      E    B    A                    C#m                B 
E---------------------------------------------------------------------12--12---12--12--12---12--------12-------12----- 
B---------------------------------------------------------------------12b-12b-12b-12b-12b-12b--12b-----12b--------- 
G--11b--11br--9--11b-11b--9--11--9--8--8-8-9--11--9--11b---------------------------------------------------------- 
D-------------------------------------------------------------------------------------------------------------------------- 
A-------------------------------------------------------------------------------------------------------------------------- 
E-------------------------------------------------------------------------------------------------------------------------- 

                                            E... 
E-------12-------12------------------------------------------------------------------------------------------------------ 
B--12b-----12b------12br--12------------------------------------------------------------------------------------------- 
G-------------------------------------------------------------------------------------------------------------------------- 
D-------------------------------------------------------------------------------------------------------------------------- 
A-------------------------------------------------------------------------------------------------------------------------- 
E-------------------------------------------------------------------------------------------------------------------------- 

(Chorus 2) 

Powrót