Strona główna
Newsy
Biografia
Dyskografia
Teledyski
Książki
Artykuły, wywiady
Galeria
Teksty piosenek
Znaczenia piosenek
Koncerty
Zdjęcia autorstwa BA
FAQ
Księga gości


AUTORZY:
Margo
& (webmaster):
Victoria

© 2002
Akordy i tabulatory


Win some, lose some 


Verse Riff (VR): 
> = accented 
E--------------------------------------------------------------------------------------------------------------------- 
B--------------------------------------------------------------------------------------------------------------------- 
G--4---2------------4--4--2----4---2-------------------------------------------------------------------------------- 
D--2---2------------2--2--2----2---2-------------------------------------------------------------------------------- 
A--0---0------------x--x--x-----0---0-----------4-4-4--4-4-------------------------------------------------------- 
E-----------0-1-2---2--2--2------------0-1-2---2-2-2--2-2------------------------------------------------------- 
                                                                                   >      > 

Intro: Verse Riff x2 

Verse 1: 
               VR 
Now you know that I stood outside your window, just a little too long 
                VR 
What you gonna do, when the hours pass away and you know that I'm gone 
           D 
Well it may be a week it maybe a day 
      F                                                                      VR 
I'm six blocks over and I don't know what to say to you 
Jokin' 'bout your mother went a little too far 
            VR 
But you caught me out with the others til the early dawn 
         D 
There may be a time if we play it right 
      F 
I'm six blocks over and you wanna spend the night with me 
VR 
Now the hours and the minutes just fly away 

Chorus Riff (CR): 

     A                    A/G              A/F#         A/F 
E---------------------------------------------------------------------------------------------------------- 
B---------------------------------------------------------------------------------------------------------- 
G---------------------------------------------------------------------------------------------------------- 
D--2---2-2-2-2---5--5--5-4---4-4-4-4---3--3--3-------------------------------------------------------- 
A--0---0-0-0-0---0--0--0-0---0-0-0-0---0--0--0-------------------------------------------------------- 
E---------------------------------------------------------------------------------------------------------- 

Chorus 1: 
        A          A/G                A/F# 
You win some and you lose some 
A/F                  A      A/G 
You gotta get it right 
A/F# 
Or I'll be saying 
A/F 
Bye, bye, bye, bye, bye... 

VR x 2 

Verse 2: same as verse 1 
Thinking about you the way you're holding me down 
I'd be better off dead noe you know 
That the time is running out on the things we said 
It may be a week, it may be a day 
I'm six blocks over and I don't know what to say to you 
Now the hours and the minutes just fly away 

Chorus 2: 
        A          A/G                A/F# 
You win some and you lose some 
A/F                  A      A/G 
You gotta get it right 
A/F# 
Or I'll be saying 
A/F                            A      A/G 
Bye, bye, bye, bye, bye... 
A/F# 
Or I'll be saying 
A/F 
Bye, bye, bye, bye, bye... 

VR x4

Powrót