Strona główna
Newsy
Biografia
Dyskografia
Teledyski
Książki
Artykuły, wywiady
Galeria
Teksty piosenek
Znaczenia piosenek
Koncerty
Zdjęcia autorstwa BA
FAQ
Księga gości


AUTORZY:
Margo
& (webmaster):
Victoria

© 2002
Akordy i tabulatory


Wait and see 


Intro: F5 | D5 | G5 | C5 x2 
Verse 1: 
                F5             D5 
There you go looking cool 
            G5                C5 
Writing rules for your theories of romance 
F5                    D5 
I know that you doubt me 
            G5                     C5 
But without me you'd be tearing off your one chance 

Chorus 1: 
Dm  C    Bb 
Wait and see 
                C        Dm       C   Bb    C 
This could be the last time for me 
Dm   C Bb                     F 
Baby,        just wait and see 

Verse 2: same as verse 1 
All the times I came running back down the path 
Of the least resistance 
I felt my body was just a hobby for your heart's in difference 

Chorus 2: 
Dm  C    Bb 
Wait and see 
                C        Dm       C   Bb    C 
This could be the last time for me 
Dm   C Bb                     F    E5 D5 
Baby,        just wait and see 
                    E5   F    E5 D5 
Just you wait and see 
                    E5   F    E5 D5 
Just you wait and see 
        E5   F 
Wait and see 

Solo: 
b = bend one tone 
br = bend one tone then release 
b = pre-bend one tone 

                  F                Dm            Gm                                    C                               F 
E------------------------------------------------------------------------------------------------------------------ 
B---------------------------------------------------10h11--10-----------------------18--18-----20b-20b-20b-- 
G----------10---12br--10---------10-10--10------------------12---12\-----17h19----------19----------------- 
D--10h12------------------10h12-------------12----------------------------------------------------------------- 
A------------------------------------------------------------------------------------------------------------------ 
E------------------------------------------------------------------------------------------------------------------ 

                            Dm                                          Gm                                                C 
E-------------------------------------------------------20------20-------20------20------20-----20------------- 
B--20b-20b-20b--20b-20b-20b--20b-20b-20b--20b-----20b-----20b-----20b-----20b----20b-----20b-------- 
G------------------------------------------------------------------------------------------------------------------- 
D------------------------------------------------------------------------------------------------------------------- 
A------------------------------------------------------------------------------------------------------------------- 
E------------------------------------------------------------------------------------------------------------------- 

(Chorus 1) 

Verse 3: same as verse 1 
I've been trapped by your innocence 
Haven't seen you since 
You caught me baby 
Shot down by the one I love 
Now I'm taking off with the things you taught me 

(Chorus 2)

Powrót