Strona główna
Newsy
Biografia
Dyskografia
Teledyski
Książki
Artykuły, wywiady
Galeria
Teksty piosenek
Znaczenia piosenek
Koncerty
Zdjęcia autorstwa BA
FAQ
Księga gości


AUTORZY:
Margo
& (webmaster):
Victoria

© 2002
Akordy i tabulatory


Give me your love 


 Intro: Fsus4 | Fsus4| 
Verse 1: 
Bb    Bb/A                 Gm 
I can fool myself for a night 
Eb      Dm                Cm               F 
Going on like I don't need you any more 
Bb         Bb/A             Gm 
Just like walking in the dark 
Eb        Dm                 C                      F 
Tell me now that you'll give me all your love 

Chorus 1: 
G   D                   Am 
Oh give me your love 
C 
Give me your love 
G     D          Am  C 
Or nothing at all,   nothing at all 
G    D                C Cm 
Oh give me your love 

Verse 2: same as verse 1 
I've been everywhere and here I go again 
Looking out for me and leaving you behind 
But let me hold you just one time 
So will you give your love 
I'll know that you'll be mine 

(Chorus) 

Solo: 
b = bend one tone 
br = bend one tone then release 
b = pre-bend one tone 
br = pre-bend one tone, then release 
b = bend half a tone 

E------------------------------------------------------------------------------------------8b--8br-(8)p6h8b---- 
B------------6-8--10--(10)b--(11)\8----6h8p6\3------------------------------------6-8------------------------ 
G--3---5/7-----------------------------------------5--5b--5br-(5)p3--5-------3-5----------------------------- 
D---------------------------------------------------------------------------3/5----------------------------------- 
A------------------------------------------------------------------------------------------------------------------ 
E------------------------------------------------------------------------------------------------------------------ 

E---8br-(8)p6h8b--8--6--5h6p5---------13b--13br-(13)p11---------------------------------------10-11-13-13b- 
B----------------------------------6/8--------------------------13b--13b-13b-13br-(13)p11---13---------------- 
G------------------------------------------------------------------------------------------------------------------- 
D------------------------------------------------------------------------------------------------------------------- 
A------------------------------------------------------------------------------------------------------------------- 
E------------------------------------------------------------------------------------------------------------------- 

Chorus: 
G   D                   Am 
Oh give me your love 
C 
Give me your love 
G     D          Am  C 
Or nothing at all,   nothing at all 

(repeat) 

Powrót