Strona główna
Newsy
Biografia
Dyskografia
Teledyski
Książki
Artykuły, wywiady
Galeria
Teksty piosenek
Znaczenia piosenek
Koncerty
Zdjęcia autorstwa BA
FAQ
Księga gości


AUTORZY:
Margo
& (webmaster):
Victoria

© 2002
Akordy i tabulatory


Wastin' time 


 Riff 1: play during verses 
    A                         B 
E------------------------------------------------------------------------------------------------------------------- 
B------------------------------------------------------------------------------------------------------------------- 
G------------------------------------------------------------------------------------------------------------------- 
D------7--6--4--2--4-4-6--4-4-6--------------------------------------------------------------------------------- 
A--0---0--0--0--0--2-2-2--2-2-2--------------------------------------------------------------------------------- 
E------------------------------------------------------------------------------------------------------------------- 

Intro: Riff 1 x2 

Verse 1: 
A                          B 
Could have been a winner 
A                          B 
Should have taken me 
          A                                    B 
It was so damn cold I should've held ya 
                         C#m           C#m B 
Cause you were shaking me 
          A                   B 
Well I almost had to question 
A                       B 
When she let me home 
           A                         B 
I spent too much time for one night 
          C#m     C#m B 
Being all alone 

Chorus: 
                        E                B A B 
She said you're wastin' time 
           E                      B  A    B 
You're taking a chance on me 
           E                B A B 
You're wastin' time 
           E                      B   A  B 
You're taking a chance on me 

Riff 2: play over riff 1 
b = bend one tone 
br = bend one tone then release 

    A              B              A                         B 
E------------------------------------------------------------------------------------------------------------------- 
B----------2---------5--7b-7b-7br-(7)p5-7-------------------------------------------------------------------------- 
G--2--2-4---4--4h6----------------------------------------------------------------------------------------------- 
D-------------------------------------------------------------------------------------------------------------------  
A------------------------------------------------------------------------------------------------------------------- 
E------------------------------------------------------------------------------------------------------------------- 

Riff 2 (= Riff 1 x2) 

Verse 2: same as verse 1 
Should have got the rambler 
Backseat movie for two 
I spent too much time for one night 
Being alone with you 
Should have seen her daddy 
Cause he said she had to go 
I spent too much time for one night 
Being all alone 

(Chorus) 

Riff 1 x 2 

Solo: 
b = bend one tone 
br = bend one tone then release 

                    A                B               A                             B                      A                          B 
E------------------------------------------------------------------------------------------------------------------ 
B------------------------------------5-7-5-7br-(7)p5--7-7-7-7----9-12-12b--12-12b--12-12b--12-12b------- 
G----------------------------/4-4-6------------------------------------------------------------------------------- 
D------------------------------------------------------------------------------------------------------------------ 
A--0-0-0--0-0--0-2--4--2---------------------------------------------------------------------------------------- 
E------------------------------------------------------------------------------------------------------------------ 

            C#m                                                         C#m             B   E... 
E------12b--12-9-----9------------------------------------------------------------------------------------------- 
B--12-------------12-----12-12br-(12)p10--12------------------------------------------------------------------- 
G--------------------------------------------------11br-(11)p9-11-9--------------------------------------------- 
D------------------------------------------------------------------------------------------------------------------ 
A------------------------------------------------------------------------------------------------------------------ 
E------------------------------------------------------------------------------------------------------------------ 

(Chorus x2) 

Riff 1 x8 or Riff 2 x4 

Powrót