Strona główna
Newsy
Biografia
Dyskografia
Teledyski
Książki
Artykuły, wywiady
Galeria
Teksty piosenek
Znaczenia piosenek
Koncerty
Zdjęcia autorstwa BA
FAQ
Księga gości


AUTORZY:
Margo
& (webmaster):
Victoria

© 2002
Akordy i tabulatory


State of mind 


Intro: D F#m | Bm G | D F#m | Bm Bb Am Gm 
  
Verse 1: 
  Bb                      Am 
I know that you're curious 
     Dm 
So don't be so serious 
       Bb                     Am         Dm 
You know there's no cause for alarm 
                    Bb        Am 
When you're down - out 
Dm 
Left here in doubt 
           Bb                 Am            G        Bb 
All the things that are right will go wrong 

Chorus 1: 
D            F#m     Bm    G 
Love is a state of mind 
D                    F#m  Bm C 
It's keeping us both alive 
D                   F#m     Bm G 
Sometimes it's hard to find 
D              F#m      Bm    Bb Am Gm 
Love's in a state of mind 

Verse 2: same as verse 1 
Wait just a minute 
You know I ain't finished 
So don't you go carrying on 
Cause I'm down, 
Out left here in doubt 
Well we try but we can't get along 

(Chorus) 

Solo: 
b = bend 1 tone 
br = bend 1 tone then release 
b = pre-bend 1 tone 

E-----------------------------------------------------------------------------10-10-10--10---10-10-10--10--------10- 
B--8br-(8)p6-8--8br--6----------------------------6----6--8br-(8)p6h8b----------13b-13b---------13b-13b--13b--- 
G-------------------------7-7--------5-5-----5-5--7--7----------------------------------------------------------------- 
D--------------------------------5/7------5/7---------------------------------------------------------------------------- 
A-------------------------------------------------------------------------------------------------------------------------- 
E-------------------------------------------------------------------------------------------------------------------------- 

E--13b--13--10----10---------------------------------------------------------------------------------------------------- 
B----------------13----------------------------------------------6--8-6--8b-8b-8b------------------------------------- 
G----------------------------5-5-------5-5-----5-5------5-7-5--5------------------------------------------------------ 
D------------------------5/7-------5/7------5/7-----5/7----------------------------------------------------------------- 
A-------------------------------------------------------------------------------------------------------------------------- 
E-------------------------------------------------------------------------------------------------------------------------- 
  

Chorus 2: 
D            F#m     Bm    G 
Love is a state of mind 
D                    F#m  Bm C 
It's keeping us both alive 
D                   F#m     Bm G 
Sometimes it's hard to find 
D              F#m      
Love's in a state of  
Bb   Am Gm Am   Bb C D 
Love is    a    state of   mind 

(repeat twice) 

Bb Am Gm Am x3 
D 

Powrót