Strona główna
Newsy
Biografia
Dyskografia
Teledyski
Książki
Artykuły, wywiady
Galeria
Teksty piosenek
Znaczenia piosenek
Koncerty
Zdjęcia autorstwa BA
FAQ
Księga gości


AUTORZY:
Margo
& (webmaster):
Victoria

© 2002
Akordy i tabulatory


Try to see it my way


                                                               G 
E------------------------------------------------------------------------------------------------------------------- 
B--6--5---6--6--6--5---6--5---6--6--6--5-----5--3---5--5--5--3---5--3---5--5--5--3-------------------------- 
G--6--5---6--6--6--5---6--5---6--6--6--5-----5--4---5--5--5--4---5--4---5--5--5--4-------------------------- 
D--6--5---6--6--6--5---6--5---6--6--6--5-----5--5---5--5--5--5---5--5---5--5--5--5--------------------------- 
A------------------------------------------------------------------------------------------------------------------- 
E------------------------------------------------------------------------------------------------------------------- 

Intro: Riff x2 

C                             G 
Ooh, try to see it my way 
C                             G 
Ooh, try to see it my way 

Verse 1: 
          F                      G 
Well I know you cover up 
             G             Am 
From all things you did 
        G          Am 
That tied you up 
F     G                          G   Am G Am 
Oh, just want to let you know 
          F                       G 
That I wanna keep you warm 
             G              Am     F        Am 
Until the sun warms up the dawn baby, 
F 
Move in a little closer 
G 
Then you can think it over 

Chorus: 
C                             G 
Ooh, just try to see it my way 
            C 
Think it over 
                        G 
Just try to see it my way 

Verse 2: same as verse 1 
Well you said you needed time 
From all the things that run around your mind 
How can I let you know 
That I wanna keep you warm 
Until the sun warms up the dawn baby, 
Move in a little closer 
Then you can think it over 

(Chorus) 

Solo: 
b = bend one tone 
br = bend one tone then release 

E----------------------------------------------------------------------------------------------5-5---5-5---5-5- 
B-------------------------------------------------------------------------------------5h8-----5-5---5-5---5-5- 
G--7b-------5-7b--7-5-7---------------5--7br-(7)p5--7br-(7)p5--7br-(7)p5--5h7--------7------7-----7------ 
D-------5h7---------------7-------5h7---------------------------------------------------------------------------- 
A-----------------------------5h7--------------------------------------------------------------------------------- 
E------------------------------------------------------------------------------------------------------------------ 

E--5--8p5-----------8p5-----------8p5----------8p5------------------------------------------------------------- 
B----------8p5-8p5------8p5-8p5------8p5-8p5-----8p5-8p5--8b----13-10-13--13br-13--15br-15--15\------ 
G------------------------------------------------------------------------------------------------------------------ 
D------------------------------------------------------------------------------------------------------------------ 
A------------------------------------------------------------------------------------------------------------------ 
E------------------------------------------------------------------------------------------------------------------ 

(Chorus x2) 

Powrót