Strona główna
Newsy
Biografia
Dyskografia
Teledyski
Książki
Artykuły, wywiady
Galeria
Teksty piosenek
Znaczenia piosenek
Koncerty
Zdjęcia autorstwa BA
FAQ
Księga gości


AUTORZY:
Margo
& (webmaster):
Victoria

© 2002
Akordy i tabulatory


Lonely Nights 

 
Intro: E | B | A | B | x4 
          Over 3rd and 4th time play riff 
Riff: 

    E        B                       A         B                    E        B                      A          B 
E-------------------------------------------------------------------------------------------------------------------------- 
B-------------------------------------------------------------------------------------------------------------------------- 
G----------------------------1----2-2-2-1---------------------------------1---------------------------------------------- 
D--4--2--4-2-4--2-4-2---4---2------------4----4--2--4-2-4--2-4-2---4---2------------------------------------------- 
A---------------------------------------------------------------------------------4-2------------------------------------ 
E-------------------------------------------------------------------------------------------------------------------------- 
  

Verse 1: 
B E                A                  E 
        Will you risk your reputation? 
B E             A 
        I don't know. 
B E                A                                  E 
        You just don't know what you're sayin' 
B E         A 
        Anymore. 
B E                   A                       E 
        You know beggers can't be chosers, 
B E                   A 
        And that's fair. 
B E                  A                     E 
        When we win we may be losers, 
B E             A     B 
        I don't care, no no no. 

Chorus: 
E          B                                 A 
Baby, I just can't stand another lonely night, 
B                          E 
So come over and save me, 
B                                A       B 
Save me from another lonely night. 

Verse 2: same as verse 1 
I hear every word you're sayin' 
They're all lies. 
But with every breath you're takin' 
You're thinkin' of ways to say good night. 

(Chorus) 

Solo: 
    E       B         A                B                E              B                         A                         B 
E---------------------------------------------------16--14--12-12---17-16-14-12-12-14-14-14-14-14-14-14-14-12- 
B----------------------------7-5-4-5-7--7b-7b------------------------------------------------------------------------- 
G--------4-4----4--2-1-2----------------------------------------------------------------------------------------------- 
D--2-2------------------------------------------------------------------------------------------------------------------- 
A-------------------------------------------------------------------------------------------------------------------------- 
E-------------------------------------------------------------------------------------------------------------------------- 

(Chorus x4) 

E | B | A | B | x4 with riff 

Powrót