Strona główna
Newsy
Biografia
Dyskografia
Teledyski
Książki
Artykuły, wywiady
Galeria
Teksty piosenek
Znaczenia piosenek
Koncerty
Zdjęcia autorstwa BA
FAQ
Księga gości


AUTORZY:
Margo
& (webmaster):
Victoria

© 2002
Akordy i tabulatory


Fits Ya Good 


Intro: F# | F# | F# |  x2 
          E | E | F# | F# | x2 with riff 
Riff: 

       E                                    F# 
E-------------------------------------------------------------------------------------------------------------------------- 
B---5p4-----5p4-----5p4----------------------------------------------------------------------------------------------- 
G---------6-------6-------4h6------------------------------------------------------------------------------------------- 
D-------------------------------------------------------------------------------------------------------------------------- 
A-------------------------------------------------------------------------------------------------------------------------- 
E-------------------------------------------------------------------------------------------------------------------------- 
  

Verse 1: 
            E                                                F# 
Waiting here, for the working day to end 
                    E                                              F# 
Five O'Clock and those walls are just movin' closer 
A                                                            B 
You get home so down and worn out, it's understood 

Chorus: 
                              F# | E B                   | 
Yeah fits you good,             fits you good 
F# | E        B                 | F# | E B | F# | E 
        Yeah fits you good,           oh 

Verse 2: same as verse 1 
Was a time when you were bringin' me down, 
Well I know it's just the way you look at life. 
But you don't know like I know baby, 
You know that I could 

(Chorus) 

Solo: 
b = bend 1 tone 
br = bend 1 tone then release 
b = pre-bend 1 tone 
br = pre-bend 1 tone then release 

                         E                                            F#                              E                               F# 
                                                                                                                                                    hold..................... 
E------------------------------------------------------------------------------------------------------9-12p9-12p9----- 
B---------------14b--14b--14br--12-14-12--------------------------------------------9--12b--12b-------------------- 
G----------11---------------------------------13b--13b--13br-11---9-8----9-8-----9---------------------------------- 
D--11/13-------------------------------------------------------------------9------9------------------------------------- 
A-------------------------------------------------------------------------------------------------------------------------- 
E-------------------------------------------------------------------------------------------------------------------------- 

                                        E                                                                                                 F# 
E-------------------------12b-12b-12br-(12)p9h12--12br-(12)p9-------------------------19b-17-19-17-----21b-17-- 
B--12b-12b-10h12p10---------------------------------------------12--11-12-14-12-11------------------19---------19- 
G-------------------------------------------------------------------------------------------------------------------------- 
D-------------------------------------------------------------------------------------------------------------------------- 
A-------------------------------------------------------------------------------------------------------------------------- 
E-------------------------------------------------------------------------------------------------------------------------- 

       E                                       F# 
                                                    scrape down top 2 strings 
E------------------------------------\------------------------------------------------------------------------------------ 
B---15b-----------------------------\-------------------------------------------------------------------------------------- 
G---------14b---9b-9b--7--7-------------------------------------------------------------------------------------------- 
D-------------------------------------------------------------------------------------------------------------------------- 
A-------------------------------9----------------------------------------------------------------------------------------- 
E-------------------------------------------------------------------------------------------------------------------------- 

      A 
But you don't know what I know baby, 
B 
You know that I could 

(Chorus x2) 

Powrót