Strona główna
Newsy
Biografia
Dyskografia
Teledyski
Książki
Artykuły, wywiady
Galeria
Teksty piosenek
Znaczenia piosenek
Koncerty
Zdjęcia autorstwa BA
FAQ
Księga gości


AUTORZY:
Margo
& (webmaster):
Victoria

© 2002
Akordy i tabulatory


Jealousy 


Intro: play with riff D | Bm | D | B | 
                                D | Bm | D | A | 
Main Riff: 

        D                                  Bm                              x3  A 
E----------------------------|--------------------------|-------------------------------------------------------------------- 
B----7--7-7-7-7--8-7-5----|--7--7-7-7-7--8-7-5----|--5---------------------------------------------------------------- 
G-------------------------7-|-----------------------7--|------------------------------------------------------------------- 
D---------------------------|---------------------------|-------------------------------------------------------------------- 
A---------------------------|---------------------------|-------------------------------------------------------------------- 
E---------------------------|---------------------------|-------------------------------------------------------------------- 
  

Verse 1: 
D                                     Bm 
I can't complain about the way we tried, 
D                              Bm 
So maybe it's time to say goodbye, 
C 
Not gonna look around 
C/B                                 Asus4 A Asus2 A 
I'm just gonna look away. 
D                                          Bm 
Don't put the reasons back in my head, 
D                                                  Bm 
You say you loved me now you've left me for dead, 
C     C/B                          Asus4 A Asus2 A 
Oh I just can't stand it this way. 

Chorus riff (CR): 

E-------------------------------------------------------------------------------------------------------------------------- 
B-------------------------------------------------------------------------------------------------------------------------- 
G-------------------------------------------------------------------------------------------------------------------------- 
D-------------------------------------------------------------------------------------------------------------------------- 
A-------------------0-0--2-3-4------------------------------------------------------------------------------------------- 
E---0-0--2-0-3--0-------------------------------------------------------------------------------------------------------- 

Chorus 1: 
      D                       G 
Oh jealousy, coming over me, 
            D                               G 
It's that jealousy, breaking my heart. 
          D         D/C      D/B                D/G 
Whoa jealousy, taking control of me, 
             CR 
Now ya just gotta know, 
          CR 
That I can't let it go, 
            CR 
And it's time that ya knew, 
I can't stop loving you. 

D | Bm | D | Bm with main riff 

Verse 2: same as verse 1 
You say I'm a sentimental fool, 
But all I tried to do is go with you, 
Not gonna look around 
I'm just gonna look away. 
It's been a battle since you broke my heart, 
I tell you now that it's been coming down hard, 
Oh I just can't stand another day. 

(Chorus 1) 

Solo: 
                                          hold..... 
E------------------------------5--------------10---8-------------8----12-----------------12---15b--15b---------------- 
B---7--7---7p5------------7-----7----7--10---------8--------8----------13----------13-------------------------------- 
G-----------------7--6h7--------------------------------9-9------------------12--12------------------------------------- 
D-------------------------------------------------------------------------------------------------------------------------- 
A-------------------------------------------------------------------------------------------------------------------------- 
E-------------------------------------------------------------------------------------------------------------------------- 

Chorus 2: 
      D                       G 
Oh jealousy, coming over me, 
            D                               G 
It's that jealousy, breaking my heart. 
      D                       G 
Oh jealousy, coming over me, 
            D                               G 
It's that jealousy, breaking my heart. 

D            Bm 
Jealousy 
D            Bm 
Jealousy 
keep repeating with main riff 

Powrót