Strona główna
Newsy
Biografia
Dyskografia
Teledyski
Książki
Artykuły, wywiady
Galeria
Teksty piosenek
Znaczenia piosenek
Koncerty
Zdjęcia autorstwa BA
FAQ
Księga gości


AUTORZY:
Margo
& (webmaster):
Victoria

© 2002
Akordy i tabulatory


You Want It, You Got It 


Intro: B5 | A5 | G#5 | F#5 | x2 
          E | B | D | A | E | B | D | B | 
  
Verse 1: 
E           B                     D                   A 
I think I told you maybe once or twice before, 
E                B                      D                         A 
They'll only hold you down, leave you wanting more. 
E                         B                          D                    A 
But you refuse to listen, babe, so this is where you'll stay, 
E                                   B                    D                      B5     A5 G#5 F#5 
If you weren't so bloody juvenile, you'd be some where today. 
  
Chorus riff (CR): 

E-------------------------------------------------------------------------------------------------------------------------- 
B---x--9--x--9\----3--2--3--2----x--7--x--7\----5--4--5--4------------------------------------------------------------ 
G---x--9--x--9\----2--2--2--2----x--7--x--7\----4--4--4--4------------------------------------------------------------ 
D---x--9--x--9\----4--2--4--2----x--7--x--7\----6--4--6--4------------------------------------------------------------ 
A-------------------------------------------------------------------------------------------------------------------------- 
E-------------------------------------------------------------------------------------------------------------------------- 

Chorus: 
   CR 
If you want it, you got it, 
   CR 
If you want it, you got it, 
   CR                            B 
If you want it, you got it now. 

E | B | D | A | 
E | B | D | B | 

Verse 2: same as verse 1 
You think you want a break but I got news for you, 
I think it's time you start believing your reviews. 
Stood me up and shot me down so many times before, 
But dropping names and playing games won't get you through my door. 

(Chorus) 

Solo: 

      use tremelo to 
    bend up & down 
E-------------------------------------------------------------------------------------------------------------------------- 
B--------------------------------------------9--------------------------16------------------------------19--------------- 
G----4----------------2-1-------------9-------9----9----------16---------16-----16-----------19---------19-----19--- 
D--------------------------2--------9----9-------9---------16-----16---------16-----------19-----19---------19------- 
A---------------------------------7----------------------14-----------------------------17------------------------------- 
E-------------------------------------------------------------------------------------------------------------------------- 
  
E-------------------------------------------------------------------------------------------------------------------------- 
B-------------------------------------------------------------------------------------------------------------------------- 
G---14---17p14-16p13-15p12-14p11-13p10-12p9-11p8-10p7-7\------------------------------------------------------ 
D-------------------------------------------------------------------------------------------------------------------------- 
A-------------------------------------------------------------------------------------------------------------------------- 
E-------------------------------------------------------------------------------------------------------------------------- 

(Chorus x2)

Powrót