Strona główna
Newsy
Biografia
Dyskografia
Teledyski
Książki
Artykuły, wywiady
Galeria
Teksty piosenek
Znaczenia piosenek
Koncerty
Zdjęcia autorstwa BA
FAQ
Księga gości


AUTORZY:
Margo
& (webmaster):
Victoria

© 2002
Akordy i tabulatory


The Only One 


Intro: E | E | A | A | x2 
play with riff 
Riff: 

    E                                 A 
E-------------------------------------------------------------------------------------------------------------------------- 
B--7-----7------7/9\7\5---7-----7------7/9\7\5--------------------------------------------------------------------------- 
G-------------------------------------------------------------------------------------------------------------------------- 
D-----9-----9-----------------9-----9------------------------------------------------------------------------------------- 
A-------------------------------------------------------------------------------------------------------------------------- 
E-------------------------------------------------------------------------------------------------------------------------- 
  

Verse 1: 
          E 
Well I made up my mind 
                 A 
Not gonna let you get away 
     E 
To think that I'm the lucky guy 
       A 
I've almost got it made 
                C#m 
Cause it's been so long 
Since I've felt so strong 
           A 
About anyone at all 
        C#m 
I get so excited 
I ain't gonna fight it 
  B 
I think I might be fallin' in love 

Chorus: 
     E                    A             B 
So come on, let's get it right 
                           A 
Cause you're the only one 
     E                          A               B 
So come on, we ain't got all night 
                          A 
Cause you're the only one 

E | E | A | A |  with riff 

Verse 2: same as verse 1 
Last night I thought you mighta stayed 
If I'd a' had the guts 
I woulda pushed my luck 
But then you mighta turned away 
How do I explain 
I know it sounds insane 
But then I've been through this before 
In just a matter of time 
You could change your mind 
You could turn and walk right through that door 

(Chorus) 

Solo: 
b = bend 1 tone 
br = bend 1 tone then release 
br = pre-bend 1 tone then release 

                    C#m                                                A                                              C#m 
E---------------------------------------------------------------------------------11-11-----12-12-12-12-12-12-------- 
B----------------------------------------------------------------------------------------12------------------------------- 
G--------9--11--9------9--11--11b--9-------9--11--11br--9---------9-11-9------------------------------------------- 
D--9h11------------11--------------------11-----------------------11--------------------------------------------------- 
A-------------------------------------------------------------------------------------------------------------------------- 
E-------------------------------------------------------------------------------------------------------------------------- 

       B                                                    E.... 
E---17-16----------------------------------------------------------------------------------------------------------------- 
B----------19--17-16-17--17b--17br--17-------------------------------------------------------------------------------- 
G-------------------------------------------------------------------------------------------------------------------------- 
D-------------------------------------------------------------------------------------------------------------------------- 
A-------------------------------------------------------------------------------------------------------------------------- 
E-------------------------------------------------------------------------------------------------------------------------- 

(Chorus x3) 

E | B | A | B | x4 with riff 

Powrót