Strona główna
Newsy
Biografia
Dyskografia
Teledyski
Książki
Artykuły, wywiady
Galeria
Teksty piosenek
Znaczenia piosenek
Koncerty
Zdjęcia autorstwa BA
FAQ
Księga gości


AUTORZY:
Margo
& (webmaster):
Victoria

© 2002
Akordy i tabulatory


Take Me Back 


CM    C6sus4 
x            x 
5            6 
5            5 
5            7 
x            x 
x            x 
Intro: A5 | C5 | F5 | A5 C5 B5 A5 C5 B5 | x3 
beat:                         1    2         3     4 

Intro lead: 
b = bend 1 tone 
br = bend 1 tone then release 
br = pre-bend 1 tone then release 

    A5  C5  F5  A5 C5 B5 A5 C5 B5  A5                 C5   F5   A5   C5 B5 A5 C5 B5  A5      C5                    F5  A5 
E-------------------------------------------------------------------------------------------------------------------------- 
B-------------------------------------------------------------------------------15br-------(15)b--13---13-13-----13\--- 
G--------------------7b---------------7br---5--7b--5---------(5)/-----------------------------------14-------14--14\--- 
D-------------------------------------------------------------------------------------------------------------------------- 
A-------------------------------------------------------------------------------------------------------------------------- 
E-------------------------------------------------------------------------------------------------------------------------- 
  

Verse 1: 
Dm                    Am 
I shoulda seen it coming 
Dm                      Am 
I shoulda seen the signs 
Dm                                  Am 
Didn't really think that she needs me 
                  C        G 
Must've bin blind 
Dm                          Am 
She didn't give me a warning 
Dm                                 Am 
Said I shouldn't treat you wrong 
Dm                                Am 
But when I woke up this mornin' 
              C              G 
She was gone gone gone 

Chorus: 
                Am 
She said... Take me back won't ya 
C                                  F 
Take me back won't ya 
                     Am     C5 B5 A5 C5 B5 
I'll change my ways 
Am 
Take me back won't ya 
C                                  F 
Take me back won't ya 
                 Am     C5 B5 A5 C5 B5 
I'm not the same 

Verse 2: same as verse 1 
She didn't tell me about it 
Am I supposed to read your mind 
You make me get up and shout it 
It's a crime crime crime 
I shoulda seen it coming 
I shoulda seen the signs 
Didn't really think that she needs me 
Must've bin blind 

(Chorus) 

CM C6sus4 C6sus4 CM  F                             G 
                                            Won't ya take me back 
CM C6sus4 C6sus4 CM  F                             G 
                                            Won't ya take me back 
CM C6sus4 C6sus4 CM  F                             G 
                                            Won't ya take me back 
CM C6sus4 C6sus4 CM  F                             G 
                                            Won't ya take me back 

Solo: 

     Am C                                        F                        Am            Am                             C 
                                                       palm mute...... 
E-------------------------------------------------------------------------------------------------------------------------- 
B-----------------------------------------------------------------13--15br(15)p13-----15br(15)p13-------------------- 
G--5--------5------7br(7)p5-----------------------------12h14--------------------14----------------14---------------- 
D------5h7-----7--------------7------------------------------------------------------------------------------------------ 
A---------------------------------------5-7-5----------------------------------------------------------------------------- 
E------------------------------------8---------8--5----------------------------------------------------------------------- 

     F                        Am           Am 
E-------------------------------------------------------------------------------------------------------------------------- 
B-------13------15br(15)p13--------------------------------------------------------------------------------------------- 
G---14-----14-----------------14-------------------------------------------------------------------------------------- 
D-------------------------------------------------------------------------------------------------------------------------- 
A-------------------------------------------------------------------------------------------------------------------------- 
E-------------------------------------------------------------------------------------------------------------------------- 

Verse 3: same as verse 1 
I shoulda seen it coming 
I shoulda seen the signs 
Didn't really think that she needs me 
Must've bin blind She didn't give me a warning 
Said I shouldn't treat you wrong 
But when I woke up this mornin' 
She was gone 

CM C6sus4 C6sus4 CM  F                             G 
                                            Won't ya take me back 
CM C6sus4 C6sus4 CM  F                             G 
                                            Won't ya take me back 
CM C6sus4 C6sus4 CM  F                             G 
                                            Won't ya take me back 
CM C6sus4 C6sus4 CM  F                             G 
                                            Won't ya take me back 

Powrót