Strona główna
Newsy
Biografia
Dyskografia
Teledyski
Książki
Artykuły, wywiady
Galeria
Teksty piosenek
Znaczenia piosenek
Koncerty
Zdjęcia autorstwa BA
FAQ
Księga gości


AUTORZY:
Margo
& (webmaster):
Victoria

© 2002
Akordy i tabulatory


This Time 


Intro: A D | G E | A D | G E | x2 with riff 
Riff: 
    A            D        G  E                 A            D      G           E     A          D       G E            A           D      G               E 
E-------------------------------------------------------------------------------------------------------------------------- 
B----------------------3p2---------------------------------------------------------3p2----------------------------------- 
G---------------2--4---------2h4---------------2--4---4p2-4b--------------2--4------2h4-------------2--4--4p2-4b-4- 
D--2-----2--4----------------------2-----2--4-------------------2----2--4------------------2----2--4------------------- 
A-----4--------------------------------4----------------------------4---------------------------4------------------------ 
E-------------------------------------------------------------------------------------------------------------------------- 
  

Verse 1: 
D                       A 
I think about her all the time 
F#m               E 
        She's my fantasy 
D                       A 
An image burnin' in my mind 
F#m           E 
        Callin' out to me 
D                    A/C# 
While my imagination's runnin' wild 
Bm                                E 
Yeah - things are getting clearer 

Chorus: 
A    D     G                 E 
This time everything is all right 
A   D             G              E 
No way she's gonna get away 
A    D     G                 E 
This time everything is easy 
A     D   G                               E 
Any day - I'm gonna make her mine 

Verse 2: 
D                             A 
I've thought of every word I'd say 
F#m             E 
        Give or take a few 
D                                   A 
But she turns and slowly walks away 
F#m                 E 
        What do I have to do 
D                          A/C# 
Hey - turn up your radio 
Bm (Fill)                               E 
Oh - there's somethin' I want you to know 

Fill: 
b = bend 1 tone 
br = bend 1 tone then release 

    Bm                      E 
E-------------------------------------------------------------------------------------------------------------------------- 
B-------------------------------------------------------------------------------------------------------------------------- 
G--4---6---7---11---------2-4br-2-4b-4-------------------------------------------------------------------------------- 
D--------------------2--4------------------------------------------------------------------------------------------------ 
A--2---4---5---9-------------------------------------------------------------------------------------------------------- 
E-------------------------------------------------------------------------------------------------------------------------- 

(Chorus) 

(Intro) 

Verse 3: 
             F#m                              E 
Well it's hard to take cause she's miles away 
              F#m                     E 
And I've waited a long time 
            F#m                            E 
But the feelin's right and darlin' one of these nights 
Bm (Fill)                         E 
Yeah - I'm gonna let you know 

(Chorus x2) 

Outro: 
    A            D        G  E                 A            D      G           E     A          D       G E            A           D      G 
E-------------------------------------------------------------------------------------------------------------------------- 
B----------------------3p2---------------------------------------------------------3p2----------------------------------- 
G---------------2--4---------2h4---------------2--4---4p2-4b--------------2--4------2h4-------------2--4--4p2-4b--- 
D--2-----2--4----------------------2-----2--4-------------------2----2--4------------------2----2--4------------------- 
A-----4--------------------------------4----------------------------4---------------------------4------------------------ 
E-------------------------------------------------------------------------------------------------------------------------- 

                    E                            D 
E-------------------------------------------------------------------------------------------------------------------------- 
B-------------------------------------------------------------------------------------------------------------------------- 
G--4p2-4b--4--4--4--4--4--4-------------------------------------------------------------------------------------------- 
D-------------------------------------------------------------------------------------------------------------------------- 
A-------------------------------------------------------------------------------------------------------------------------- 
E-------------------------------------------------------------------------------------------------------------------------- 

Powrót