Strona główna
Newsy
Biografia
Dyskografia
Teledyski
Książki
Artykuły, wywiady
Galeria
Teksty piosenek
Znaczenia piosenek
Koncerty
Zdjęcia autorstwa BA
FAQ
Księga gości


AUTORZY:
Margo
& (webmaster):
Victoria

© 2002
Akordy i tabulatory


I'm Ready 


G2    C2    F2    A2    D2    G2 
3        5       6      5       7       8 
4        5       5      6       7       7 
5        5       7      7       7       9 
Intro: G5 | G5 | 

Verse 1: 
G5          E5 
I'd like to see you, 
                  F5 
Thought I'd let you know 
A5             C5                  G5    C5 D5 
I wanna be with you everyday 
G5                     E5                   F5 
Cause I've got a feeling that's beginning to grow 
A5                     C5                      D5 
And there's only one thing I wanna say 

Chorus 1: 
     G2 C2 F2 F2 F2 C2   G2  C2  F2 F2 F2 C2 
I'm ready        -            to love you 
     G2 C2 F2 F2 F2 C2   G2  C2  F2 F2 F2 C2 
I'm ready        -            to hold you 
      G   C F C     G     C    F C 
I'm ready -      to love you 
      G   C F C     G     C    F C 
I'm ready -      to hold you 
      G   C F C     G     C 
I'm ready,     I'm ready 
F                            C 
Ready as I'm gonna be 

Solo 1: 

      G5        E5          F5            A5      C5         G5  C5 D5 
E------------------------------------------------------------------------------------------------------------------------ 
B-------------------------------------5-5------------------------------------------------------------------------------- 
G---4h7--7-7---5p4-5p4--0----5h7-------7p5--7---------------------------------------------------------------------- 
D------------------------------------------------------------------------------------------------------------------------ 
A------------------------------------------------------------------------------------------------------------------------ 
E------------------------------------------------------------------------------------------------------------------------ 

Verse 2: same as verse 1 
She left me a long note 
When you left me here 
You told me that love was 
Hard to find 
Well baby it's easy 
And I'll make it clear 
Cos there's only thing on my mind 

(Chorus 1) 

Solo 2: 
b = bend 1 tone 
br = bend 1 tone then release 
b = pre-bend 1 tone 
br = pre-bend 1 tone then release 
b1/2 = bend half a tone 

    G5           E5      F5                                A5                 C5        G5                C5         D5   G5                   E5 
         use tremelo to bend down 
              1 tone then release                                          hold........... 
E------------------------------------------------------------------------------------------------------------------------ 
B--------------------------8--6p5----5------------------------8----------------12b1/2--13b--------------15-15------ 
G---4h5h7--0------2br------------7-----5----------5-----7b-----7br----5\4--------------------15-15/17------------- 
D----------------2--------------------------7-----7---7---------------------------------------------------------------- 
A------------------------------------------------------------------------------------------------------------------------ 
E------------------------------------------------------------------------------------------------------------------------ 

           F5                                                               A5                                    C5                                    D5 
                                                                              hold...................               hold................... 
E-------------------------------------------------------20-20---------------------20-20------------------------------- 
B------15------15----17br(17)p15--17-17----20-20b--------20br---17-20-20b--------20br(20)p17--20--19--20-- 
G--17-----17----------------------------------------------------------------------------------------------------------- 
D------------------------------------------------------------------------------------------------------------------------ 
A------------------------------------------------------------------------------------------------------------------------ 
E------------------------------------------------------------------------------------------------------------------------ 

E---17--20b------------------------------------------------------------------------------------------------------------ 
B------------------------------------------------------------------------------------------------------------------------ 
G------------------------------------------------------------------------------------------------------------------------ 
D------------------------------------------------------------------------------------------------------------------------ 
A------------------------------------------------------------------------------------------------------------------------ 
E------------------------------------------------------------------------------------------------------------------------ 

Chorus 2: 
     A2 D2 G2 G2 G2 D2 A2  D2  G2 G2 G2 D2 
I'm ready        -            to love you 
     A2 D2 G2 G2 G2 D2 A2  D2  G2 G2 G2 D2 
I'm ready        -            to hold you 
      A   D G D     A     D    G D 
I'm ready -      to love you 
      A   D G D     A     D    G D 
I'm ready -      to hold you 

(repeat) 

Powrót