Strona główna
Newsy
Biografia
Dyskografia
Teledyski
Książki
Artykuły, wywiady
Galeria
Teksty piosenek
Znaczenia piosenek
Koncerty
Zdjęcia autorstwa BA
FAQ
Księga gości


AUTORZY:
Margo
& (webmaster):
Victoria

© 2002
Akordy i tabulatory


What's It Gonna Be 


Intro: D | D | G | G | D | D | G | C | x2 play with riff 
Riff: 
    D                           G                           D                         G     C 
     let ring................................................... 
E--3--2--0-----0--2--3--2--0-----0--2--3--2--0----0--2--3----0----------------------------------------------------- 
B--3---------3--------3--------3---------3--------3--------3----1----------------------------------------------------- 
G--2------------------0-------------------2-----------------0----0----------------------------------------------------- 
D--0------------------0-------------------0-----------------0----2----------------------------------------------------- 
A-----------------------------------------------------------------3------------------------------------------------------ 
E----------------------3-------------------------------------3----------------------------------------------------------- 

     D                            G                               D                          G                             C 
E--3--2--0------0--2--3---2--0------0---2--3--2--0-----0--2--3--2--0-----0--2---0--------------------------------- 
B--3--3--3--3--3--3---3---3--3--3--3---3--3--3--3--3--3--3--3--3--3--3--3--3---1--------------------------------- 
G--2--2--2--2--2--2---0---0--0--0--0---0--2--2--2--2--2--2--0--0--0--0--0--0---0--------------------------------- 
D--0--0--0--0--0--0---0---0--0--0--0---0--0--0--0--0--0--0--0--0--0--0--0--0---2-------------------------------- 
A--------------------------------------------------------------------------------------3-------------------------------- 
E------------------------3--3--3--3---3--3----------------------3---3--3--3--3--3------------------------------------- 
  

Verse 1: 
G              A 
    If it was up to me 
Bm               F#m 
    I'd say it's his decision 
G                    A                                 Bm F#m 
    And maybe you should wait and see 
G                    A 
    You haven't got a choice 
Bm               F#m 
    You gotta second guess him 
G             A 
    So go ahead 

Chorus: 
                        D 
What's it gonna be 
              G 
Well you need an answer 
                        D 
What's it gonna be 
                    G            C 
All you get is no reply 

Verse 2: same as verse 1 
If it was up to you 
You'd say you need protection 
When all you really need is me 
Now that's the bottom line 
It's your sincere intention 
So go ahead 

(Chorus x2) 

Solo: 
  
                        D                                 G                                               D 
E-------------------------------------------------------------------------------------------------------------------------- 
B---------------------------------------8----8--8----8---12------12---15-----15--15--15--15--15--------------------- 
G--------------7----7--7---7--7---7---7h9-7--7h9--7---14p12--12---14h16-14---x---x----x---14-------------------- 
D------7-9-7--7h9--7--x---x--x---7------------------------------------------------17--16--17------------------------- 
A--7/9-----------------10--9--10----------------------------------------------------------------------------------------- 
E-------------------------------------------------------------------------------------------------------------------------- 

       G 
                                  hold..................................... 
E---------------------15---------15-------------------------------------------------------------------------------------- 
B---15------15----------15---------15---------------------------------------------------------------------------------- 
G---16p14---x--------------16---------16------16----------------------------------------------------------------------- 
D------------16/17--------------------------17--------------------------------------------------------------------------- 
A-------------------------------------------------------------------------------------------------------------------------- 
E-------------------------------------------------------------------------------------------------------------------------- 

Middle 8: 
F#m                 Bm                C    G 
    You've been waiting for so long 
F#m            Bm                    C    G 
    Now you say you can't go on 
                    A 
You can't go on, oh no 

(Intro) 

(Chorus) 

D | D | G | G | D | D | G | C | x2 play with 2nd half of riff (ie. with full chords) 

(Chorus) 

End lead: 

E-------------------------------------------------------------------------------------------------------------------------- 
B---13-12-10--8-7-8-10------------------------------------------------------------------------------------------------- 
G--------------------------7---------------------------------------------------------------------------------------------- 
D-------------------------------------------------------------------------------------------------------------------------- 
A-------------------------------------------------------------------------------------------------------------------------- 
E-------------------------------------------------------------------------------------------------------------------------- 

Powrót