Strona główna
Newsy
Biografia
Dyskografia
Teledyski
Książki
Artykuły, wywiady
Galeria
Teksty piosenek
Znaczenia piosenek
Koncerty
Zdjęcia autorstwa BA
FAQ
Księga gości


AUTORZY:
Margo
& (webmaster):
Victoria

© 2002
Akordy i tabulatory


Don't Leave Me Lonely 


Intro: Em F#5 G     | D A | x3    Em F#5 G | D | 
beat:   1 2         3 4 
Intro lead: 
b = bend 1 tone 
br = bend 1 tone then release 
br = pre-bend 1 tone then release 

    Em F# G    D               A                    Em   F# G              D                             A        Em    F# G        D            A 
E----------------------------------------------15------------------------------------------------------12-15b-15b-15-12- 
B--15b---15--12-15-12-----------------15b-----15b------------------------------------15b-15b-15-------------------- 
G-------------------------14br--12----------------------14--14br(14)p12--9-----12p9---------------------------------- 
D-----------------------------------14-----------------------------------------12---------------------------------------- 
A-------------------------------------------------------------------------------------------------------------------------- 
E-------------------------------------------------------------------------------------------------------------------------- 

      Em    F# G         D 
E-------------------------------------------------------------------------------------------------------------------------- 
B--15b-15b-15----------------------------------------------------------------------------------------------------------- 
G----------------14-14b--14br(14)p12----------------------------------------------------------------------------------- 
D----------------------------------------14------------------------------------------------------------------------------- 
A-------------------------------------------------------------------------------------------------------------------------- 
E-------------------------------------------------------------------------------------------------------------------------- 

Verse 1: 
Em                       D/F# 
I won't stand bein' broken hearted 
G                           A        Asus4 A 
I won't be pushed around 
       Em                         D/F# 
The rules were set when we got started 
G                       A        Asus4 A 
But lately I have found 
                   Em                      D/F# 
We've spent too little time and too much heartache 
G                       A         Asus4 A 
I feel we're losin' ground 
       C 
And lately I've been hearin' 
                                      B 
You won't be needin' me around 

E--15---15--15--15------ 
B--15b-15b-15b-15b---- 
G------------------------- 
D------------------------- 
A------------------------- 
E------------------------- 

Chorus: 
                       Em     F#5 G 
Don't leave me lonely 
                      D                  A 
Just wanna be right by your side 
                      Em  F#5 G    D    A 
Your one and only     -     tonight 
                            Em     F#5 G 
So don't leave me lonely 
                 D               A 
I need you here all the time 
                            Em    F#5 G      D 
So don't leave me lonely     -     oh no 

Verse 2: same as verse 1 
You say you need your independence 
Well I need mine 
Separate lives and separate feelings 
I guess that's fine 
But that won't last-it's no solution 
I know it can't survive 
And lately I've been thinkin' 
Thinkin' about you all the time 

(Chorus) 

Solo: 
B.S.S. = bend slightly sharp 

                                                                     hold...........                                        B.S.S.  
E-------------------------------------------------15---------------------------------------------------------------------- 
B--15b-15b-15b--12-15-12----------------15b----15br--12-15-12----------------------------------------------------- 
G------------------------------14br--12-------------------------------14-12--------2---(2)---2--2---------------------- 
D----------------------------------------14------------------------------------14--------------------2--0-0---------9-7- 
A-----------------------------------------------------------------------------------------------------------------5/7------ 
E---------------------------------------------------------------------------------------------------------------0---------- 

E-----------------------------------------------------------------------------------15--15--15------15--15--15------- 
B--10p7---10p7---10p7---10p7----12p10p7-15p12p10-15p12p10-15p12p10--18b-18b-18b----18b-18b-18b----- 
G--------7-------7-------7-------7-------------------------------------------------------------------------------------- 
D-------------------------------------------------------------------------------------------------------------------------- 
A-------------------------------------------------------------------------------------------------------------------------- 
E-------------------------------------------------------------------------------------------------------------------------- 

(Chorus x2) 

Outro: 
C | C | B | B | Em F#5 G 

      C                                                                                                                 B 
E---------12--------12--------12--------12--------12---------12------12-15-15br--15-14-12-------12--12--12--12-- 
B--12h15----12h15----12h15----12h15----12h15-----12h15-----15b---------------------------15--15b-15b-15b-15b- 
G-------------------------------------------------------------------------------------------------------------------------- 
D-------------------------------------------------------------------------------------------------------------------------- 
A-------------------------------------------------------------------------------------------------------------------------- 
E-------------------------------------------------------------------------------------------------------------------------- 

Powrót