Strona główna
Newsy
Biografia
Dyskografia
Teledyski
Książki
Artykuły, wywiady
Galeria
Teksty piosenek
Znaczenia piosenek
Koncerty
Zdjęcia autorstwa BA
FAQ
Księga gości


AUTORZY:
Margo
& (webmaster):
Victoria

© 2002
Akordy i tabulatory


Native Son 


riff 1:  hold………                                       |  riff 2: 
                                                                     A      A add9 / / /  A /    F#m7  F#7sus4 / / /  F#m7 / 

E-----5------7------5-----7------5------------------------------------2-------2----------2---------------------------- 
B--5-----5------5------5-----5-----5-------2-----2------------2------2-------2----------2--------------------------- 
G--------------------------------------------2-----4------------2------2-------4----------2--------------------- 
D--------------------------------------------2-----2------------2------2-------2----------2----------------------- 
A--------------------------------------------0-----0------------0------4-------4----------4----------------------- 
E-----------------------------------------------------------------------2-------2---------- 2------------------------ 

  
        E                                         D9 

E----0------------0-------------------------------0----------------------------------------------------------------------- 
B----0--------0----------------------------3----------3------------------------------------------------------------------ 
G----1----2---------2--1------------2-------------------2--------------------------------------------------------------- 
D----2---------------------------0----------------------------0---------------------------------------------------------- 
A----2-------------------------------------------------------------------------------------------------------------------- 
E----0--------------------------------------------------------------------------------------------------------------------- 

Intro: riff 1 

(riff 2) 
I've seen many moons through these wrinkled eyes 
The years have made me old but they've made me wise 
Now the white man lives where our rivers run 
(riff 2) 
For now better days have passed 
We walk the streets of broken glass 
Our people vanished as snow before the summer sun 

E         F#m 
Like dogs we were driven from this place 
D9 
Such injustice, time will not erase 
E                  F#m                      Bm 
All these changes cannot be undone 

(riff 2) 
When you feel the anger inside of you 
Hold your head high-let your aim be true 
Though your heart beats like a drum 
My native son 

(riff 1) 

(riff 2) 
Once there was a time my little one 
Before the wagons-before the soldiers' guns 
When this land was ours as far as the eagle flies 
(riff 2) 
No white flag-no broken truce 
With few words one can speak the truth-I don't hear it 
Time won't heal it now 

E                F#m 
With each new day that comes to pass 
D9 
Will the great spirit free us all at last? 
E                 F#                    Bm 
He said we were the chosen ones 

(riff2) 
For all we had there's nothin' left 
We won't forgive-we can't forget 
You know that your day will come 
My native son 

(riff 1) 

Solo (played over riff2): 

                                                                                                                                                            let ring then release 
  
E------------------------------------------------------------------------------------------------------------------------- 
B---------------------------------------------------14----------------10---9--------9---------------------10------------ 
G-------------14--16--14--16---16b--------16b---------14---------X--------11-------9---11-------9b----------- 
D---14---16----------------------------------------------------16---X----------------------------9------------------- 
A---------------------------------------------------------------------X------------------------------------------------- 
E------------------------------------------------------------------------------------------------------------------------- 

E------------------------------------------------------------------------------------------------------------------------- 
B------------------------------------------------------------------------------------------------------------------------- 
G---7-----7------7---------7---9\-------------------------------------------------------------------------------------- 
D------9------9------7h9----------------------------------------------------------------------------------------------- 
A----------------------------------------------------------------------------------------------------------------------- 
E----------------------------------------------------------------------------------------------------------------------- 

(same as before) 
With each new day that comes to pass 
Will the great spirit free us all at last? 
What has happened can never be undone 

(riff 2) 
When I was young-not yet a man 
The sun rose and set upon our land 
We were the chosen ones 
My native son 

Solo: riff 2. For lead just mess around in F#m and A Ionian 

Powrót