Strona główna
Newsy
Biografia
Dyskografia
Teledyski
Książki
Artykuły, wywiady
Galeria
Teksty piosenek
Znaczenia piosenek
Koncerty
Zdjęcia autorstwa BA
FAQ
Księga gości


AUTORZY:
Margo
& (webmaster):
Victoria

© 2002
Akordy i tabulatory


Summer Of '69 


Riff: 
    D                                                                                        A 

E----0----------2----------3---------2---------0-------2--------------------------------------------------------------- 
B-------3----------3----------3---------3--------------------0---------2-------3-------2---------0------2-------- 
G----------2----------2----------2---------2-------3-----------2---------2-------2--------2------------------------ 
D-------------------------------------------------------------------2--------2--------2--------2------2--------------- 
A-------------------------------------------------------------------------------------------------------------------------- 
E-------------------------------------------------------------------------------------------------------------------------- 
  

Intro: 
D5 | D5 

Verse 1: 

D5 
i got my first real six-string 
A5 
bought it at the five-and-dime 
D5 
played it til my fingers bled 
A5 
it was the summer of '69 

Verse 2: 

D 
me and some guys from school 
A 
had a band and we tried real hard 
D 
jimmy quit and jody got married 
A 
i shoulda known we'd never get far 

Bridge 1: 

Bm            A 
oh when i look back now 
D                                 G 
that summer seemed to last forever 
Bm           A 
and if i had the choice 
D          G 
ya - i'd always wanna be there 
Bm                 A 
those were the best days of my life 

play Riff 

Verse 3: same as verse 2 
ain't no use in complainin' 
when you got a job to do 
spent my evenin's down at the drive-in 
and that's when i met you 

Bridge 2: same as bridge 1 
standin' on your mama's porch 
you told me that you'd wait forever 
oh and when you held my hand 
i knew that it was now or never 
those were the best days of my life 

play Riff twice 

back in the summer of '69 

Middle 8: 
F                    Bb 
man we were killin' time 
C 
we were young and restless 
Bb 
we needed to unwind 
F          Bb                C 
i guess nothin' can last forever - forever, no 

play Riff twice 

Verse 4: same as verse 2 
and now the times are changin' 
look at everything that's come and gone 
sometimes when i play that old six-string 
i think about ya wonder what went wrong 

Bridge 3: same as bridge 1 
standin' on your mama's porch 
you told me it would last forever 
oh the way you held my hand 
i knew that it was now or never 
those were the best days of my life 

repeat Riff over and over 
back in the summer of '69 

Outro: 

E---------------------------------------------------------------------10---10---10---12/14--12---14/15---14--15/17-- 
B----------5/7---5---5/7---7b1/2-----10----10---10--10------12-------------------------------------------------------- 
G-----7------------------------------------------------------------------------------------------------------------------- 
D-------------------------------------------------------------------------------------------------------------------------- 
A-------------------------------------------------------------------------------------------------------------------------- 
E-------------------------------------------------------------------------------------------------------------------------- 

Powrót