Strona główna
Newsy
Biografia
Dyskografia
Teledyski
Książki
Artykuły, wywiady
Galeria
Teksty piosenek
Znaczenia piosenek
Koncerty
Zdjęcia autorstwa BA
FAQ
Księga gości


AUTORZY:
Margo
& (webmaster):
Victoria

© 2002
Akordy i tabulatory


Cuts Like A Knife 


Intro: D | G C9 | D | G C9 | x2 
play with riff 
Riff: 

    D                                G            C9                D     G  C9 
E-------------------------------------------------------------------------------------------------------------------------- 
B-------------------------------------------------------------------------------------------------------------------------- 
G--9--11--9h11---9--7--7/9---4--7---2h4--2-------------------------------------------------------------------------- 
D--0--0---0-------0--0--0-----0--0---0-----0-------------------------------------------------------------------------- 
A-------------------------------------------------------------------------------------------------------------------------- 
E-------------------------------------------------------------------------------------------------------------------------- 

Verse 1: 
D 
Drivin' home this evenin' 
G                                  C9             D      G C9 
Coulda sworn we had it all worked out 
       D                              G                    C9              D        G C9 
You had this boy believin' way beyond a shadow of a doubt 
        D 
Then I heard it on the street 
  G                        C9                     D        G C9 
I heard ya might of found somebody new 
        D                       G                   C9                                 D 
Well who is he baby - who is he and tell me what he means to you 

Bridge 1: 
  A                                      Bm 
I took it all for granted - but how was I to know 
        C9                      G 
That you'd be lettin' go 

Chorus: 
                           D     G C9                    D     G C9 
Now it cuts like a knife   -   but it feels so right 
                   D     G C9                    D     G C9 
It cuts like a knife   -   but it feels so right 

Verse 2: same as verse 1 
There's times I've bin mistaken 
There's times I've thought I've bin misunderstood 
So wait a minute darlin' - can't you see we did the best we could 

Bridge 2: same as bridge 1 
This wouldn't be the first time - that things have gone astray 
Now you've thrown it all away 

(Chorus) 

D                        G       C9        D G (Fill) C9 
Na na naaa na na na na na na na 
D                        G       C9        D G C9 
Na na naaa na na na na na na na 

Fill: 
b1/2 = bend half a tone 

      G                   C9 
E-------------------------------------------------------------------------------------------------------------------------- 
B--13-10----10----------------------------------------------------------------------------------------------------------- 
G---------12-----10b1/2-------------------------------------------------------------------------------------------------- 
D--------------------------12-10----------------------------------------------------------------------------------------- 
A----------------------------------12---(12)\----------------------------------------------------------------------------- 
E-------------------------------------------------------------------------------------------------------------------------- 

Solo: 
b = bend 1 tone 
br = bend 1 tone then release 
b = pre-bend 1 tone 
br = pre-bend 1 tone then release 
b1/2 = bend half a tone 
b1/2 = pre-bend half a tone 

           D                                                                                      G                                         C9              D 
           use tremelo to bend down one tone then back up...................................................... 
E-----------------------------------------------------------------------------------------------------10--------10-------- 
B---7/10h13-10h13-10h13-10h13-10h13-10h13-10h13-10h13-10h13-10h13-10h13-10h13-13b-----10-13b---10-13b- 
G-------------------------------------------------------------------------------------------------------------------------- 
D-------------------------------------------------------------------------------------------------------------------------- 
A-------------------------------------------------------------------------------------------------------------------------- 
E-------------------------------------------------------------------------------------------------------------------------- 

                                                  G                                 C9               D                                                G           C9 
                                                     grad. release 
E--10----------------------------------------------------------14----14-------------------------------14b1/2--14b1/2-- 
B------13-10-13-12-10-12-10-12br----------(12)p10-----------15----17b--17b---17br(17)p15------------------------ 
G--------------------------------------------------------12-----------------------------------------16-------------------- 
D-------------------------------------------------------------------------------------------------------------------------- 
A-------------------------------------------------------------------------------------------------------------------------- 
E-------------------------------------------------------------------------------------------------------------------------- 

                D                                                                             A.... 
E--13----17-17----19----17----19----17--20--20b--20b----20b\-------------------------------------------------------- 
B-----15--------15----15----15----15------------------------------------------------------------------------------------ 
G-------------------------------------------------------------------------------------------------------------------------- 
D-------------------------------------------------------------------------------------------------------------------------- 
A-------------------------------------------------------------------------------------------------------------------------- 
E-------------------------------------------------------------------------------------------------------------------------- 

(Bridge 1) 

(Chorus) play quietly 

D                        G       C9        D G C9 
Na na naaa na na na na na na na 
D                        G       C9        D G C9 
Na na naaa na na na na na na na 

Powrót