Strona główna
Newsy
Biografia
Dyskografia
Teledyski
Książki
Artykuły, wywiady
Galeria
Teksty piosenek
Znaczenia piosenek
Koncerty
Zdjęcia autorstwa BA
FAQ
Księga gości


AUTORZY:
Margo
& (webmaster):
Victoria

© 2002
Akordy i tabulatory


We're Gonna Win 


Intro: 
Em | G Gma7 G9 G | D9sus4 D | D  x2 
                                     |  Em                    G          Gmaj7 G9   G   D9sus4     D            X2 
E-----------------------|-------------0----3--3--3---2----0----------0-----2---2------------------------------- 
B-----------------------|-------------0----3--3--3---3----3----3----3------3---3------------------------------- 
G-----------------------|--------0---0---- 0--0--0---0----0----0----0------2---2------------------------------- 
D--2/4--4\2--0-----0--|------2------2----0--0--0---0----0----0----0------0---0------------------------------- 
A----------------2-----|---2---------2----2--2--2---2----2----2------------------------------------------------ 
E-----------------------|-------------0---------------------------------------------------------------------------- 

Verse 1: 
D 
Turn out the lights and close the door 
Put your head on the pillow let me keep ya warm 
I wanna run my hands across your face 
Ya lyin' beside ya' still the perfect place 

Chorus: 
Bm           A     Em 
We're still goin' strong 
    Bm         A             Em 
So glad that you came along 
                 Asus4/F#    A 
Ya babe in every         way 
                                  D 
You're still beautiful to me 
           Asus4/F#    A                                        D 
I just - have ta        say - You're still beautiful to me 'n (it's bin a long time baby) 

(Intro) 

Verse 2: 
Lay back baby - close your eyes 
Let me do everything your heart desires 
When I think of the years makin' love to you 
There still ain't nothin' I'd rather do 

Chorus 2: 
There's somethin' I can't deny 
You sure know how ta move this guy 
Ya babe in every way - You're still beautiful to me 
I just - have ta say - You're still beautiful to me - can't ya see 

Solo:                          hold.................................. 
             Em                G                                D 
E-------------------------------------------------------------------------------------------------------------------------- 
B---------------------15--15---15--15------(15)------------------------------------------------------------------------ 
G---------12--14b---14b-14b-14b-14b-----(14)------------11h12--11-------------------------------------------------- 
D--12h14---------------------------------------------12h14--------------12h14--12------------------------------------- 
A-------------------------------------------------------------------------------------------------------------------------- 
E-------------------------------------------------------------------------------------------------------------------------- 

    Em                      G                D 
E-------------------10------------------7---5---3----2------------------------------------------------------------------- 
B--------------10-------12-----7---8---8---7---5---3----------------------------------------------------------------- 
G---------11--------------------7---9-------------------------------------------------------------------------------------- 
D-----12------------------------------------------------------------------------------------------------------------------- 
A-------------------------------------------------------------------------------------------------------------------------- 
E-------------------------------------------------------------------------------------------------------------------------- 

Em                     G 
Still feels good - still runs deep 
          D                                A 
When you get close babe - I still get weak 
      Em                                G 
Cuz in these arms - is where you belong 
Bm           A     Em            Bm               A      Em 
We're still goin' strong - so glad that you came along 
       Bm             A                Em 
Hey babe you're still number one 
      Asus4/F#    A                                        D 
Oh can't ya        see - you're still beautiful to me 
          Asus4/F#    A                        D                    C  G Asus4/F#  A 
You'll always         be so beautiful to me 

Ya babe in every way - you're still beautiful to me 

Powrót