Strona główna
Newsy
Biografia
Dyskografia
Teledyski
Książki
Artykuły, wywiady
Galeria
Teksty piosenek
Znaczenia piosenek
Koncerty
Zdjęcia autorstwa BA
FAQ
Księga gości


AUTORZY:
Margo
& (webmaster):
Victoria

© 2002
Akordy i tabulatory


It Ain't A Party... If You Can't Come 'Round 


Intro: 
E--------------------------------------------------------------------- 
B---/5--5-------------5-----/5--5-------------5-----5/6--6--5\------ 
G-------5-----3/5----5----------5-----3/5----5--------------5\------ 
D-------5-------------5---------5-------------5-------------5\------ 
A-------------------------------------------------------------------- 
E-------------------------------------------------------------------- 
                                hey it ain't a party if you can't come round 

E----------------------------------------------------------------------------------------------------------- 
B----------------------------------------------------------------------------------------------------------- 
G---0--3/4--0------------0----3/4--0---------------0---3/4---3/4---2---4/5---4/5-----------------4\ ---- 
D----------------0---3/5---------------0---3/5------------------------------------------------------------ 
A---------------------------------------------------------------------------------------------------------- 
E---------------------------------------------------------------------------------------------------------- 

Verse 1: 
  G 
   You can drive the car.  I'll play my ol' guitar; 

  Come back to me, come back to me. 

  Yeah we can get some beer;  Yeah let's get outta here. 
  Em 
     Come back to me, come back to me, 
  F 
    We'll find a place to go, no one will ever know; 
  C                             Em/B               Am 
    Somewhere that's outta town,     put a blanket on the ground, 
  C/G  G   D                     G 
  ba - by,  'n' we can really go crazy. 
  

Chorus: 

                   F                        C 
  Babe, it ain't a party if you can't come 'round. 
                    F                         C 
  Can't even get it started if you don't come down. 
            Am7              Fmaj9          G 
  Hey, even Saturday ain't a holiday if you stay away. 
                     F     G 
  No, no, it ain't a party 

 ______________________________________________________ 
 |1.                          C     F/C  C  F  C/G 
     if you can't come 'round. 
  
  

Verse 2: (same as before) 

 Slip into somethin' tight. 
 We'll slip into the night. 
 Come back to me, come back to me. 
 We'll see the sun go down 
 'N' maybe fool around. 
 Come back to me, come back to me. 
 Yeah, we can start a fire, 
 Maybe get a little higher. 
 Don't worry what to bring, 
 Cuz we got everything, baby; 
 And we can really go crazy. 
  

Chorus: (same as before) 

 _______________________ 
 |2.   C     F     C 
     solo... 
  
Solo: F / F / C / C / F / F / C / C / 

Ending: (same as chorus) 
  
  Oh yeah, even Saturday ain't a holiday if you stay away. 
  No, no, it ain't a party if you can't come 'round, no way. 
  Can't even get started if ya can't come down. 
  Oh, it ain't a party if you can't come 'round... 
  
                    F     G    N.C.                      C     G  F  C 
  ...No, it ain't a party oh,  ohhhh, if you can't come 'round 

Powrót