Strona główna
Newsy
Biografia
Dyskografia
Teledyski
Książki
Artykuły, wywiady
Galeria
Teksty piosenek
Znaczenia piosenek
Koncerty
Zdjęcia autorstwa BA
FAQ
Księga gości


AUTORZY:
Margo
& (webmaster):
Victoria

© 2002
Akordy i tabulatory


Low Life 


Intro 
E---------10---------------10-------------------------------------------------------------------------------------------- 
B---/10--------13/15p13------13---------------------------------------------------------------------------------------- 
G------------------------------------12--12b---------------------------------------------------------------------------- 
D------------------------------------------------12----------------------------------------------------------------------- 
A------------------------------------------------------------------------------------------------------------------------- 
E------------------------------------------------------------------------------------------------------------------------- 
Verse: 
C5 C5 C5 D5                                                    C5 C5 C5 D5 
                        I've been on my best behaviour 
                                                    C5 C5 C5 D5 
my conscience is a little too clean 
                                                    C5 C5 C5 D5 
my halo's just a little too tight now 
                                        C5 C5 C5 
I'm tired of the old routine 
G5                                            F5 F5 F5 G5 
So baby lets get down and dirty 
                                             F5 F5 F5 G5 
forget about right from wrong 
                                                         F5 F5 F5 G5 
I wanna sleep in a cheap motel room 
                                        G5 
with nothing but the tv on 

Chorus: 
                                   D   C 
We need a little of the low life 
G 
to keep our feet on the ground 
                         D    C 
just a little of the low life 
G                                                           D   C 
sooner or later we gotta get down to the low life 
Yeah ! 

                                (bend and release)                                                        B.B.S (Bend Slightly Sharp) 

E------------------------------------------------------------------------------------------------------------------------- 
B---------10--13-------------------------------------------------------------------------------------------------------- 
G---/12-------------12b-----10--12-12--10--12--10--12--10--12--10--12--10------------------------------------ 
D----------------------------10--12-12--10--12--10--12--10--12--10--12-------12----------------------------- 
A------------------------------------------------------------------------------------------------------------------------- 
E------------------------------------------------------------------------------------------------------------------------- 

Well I don't wanna talk religion 
don't wanna talk politics 
I don't wanna talk at all babe 
I just wanna get my kicks 
so c'mon baby let your hair down 
you can chuck your pearls out the door 
just a little black lace and a smile on your face 
never need nothing more. 

We need a little of the low life 
to keep our feet on the ground 
just a little of the low life 
sooner or later we gotta get down to the low life 
Yeah 
I'm talking low babe 

Solo: 
                                                B.B.S                                         hold and then slide down 
  
E-----------------------------------------------------------------------------------------10-----13b--(15)--13--10----- 
B-------------------------------------------------------------------------------------10----10------------------------13- 
G-----------5--7-----10h12---10----12b---10-12b-10------10--12b-10------------------------------------------------ 
D----5--7------------------------------------------------12----------------12------------------------------------------- 
A------------------------------------------------------------------------------------------------------------------------- 
E------------------------------------------------------------------------------------------------------------------------- 

                                                                     B.B.S 

E--------------10--10---------10---------------------------------------------------------------------------------------- 
B--10---13b------------13b-------13--13---10------------------------------------------------------------------------ 
G---------------------------------------------10-------------10--------------------------------------------------------- 
D---------------------------------------------------10h12--------12---------------------------------------------------- 
A------------------------------------------------------------------------------------------------------------------------- 
E------------------------------------------------------------------------------------------------------------------------- 

Bb 
Now baby you don't wanna talk about your day 
G 
and you sure don't wanna hear 'bout mine 
Bb 
I'll meet you at the notell motel 
F                                    G 
underneath the vacancy sign 

Powrót