Strona główna
Newsy
Biografia
Dyskografia
Teledyski
Książki
Artykuły, wywiady
Galeria
Teksty piosenek
Znaczenia piosenek
Koncerty
Zdjęcia autorstwa BA
FAQ
Księga gości


AUTORZY:
Margo
& (webmaster):
Victoria

© 2002
Akordy i tabulatory


Fits Ya Good 


Intro:                                                    x2 
E------------------------------------------------------------------------------------------------------------------------ 
B----5p4-------5p4------5p4---------------------------------------------------------------------------------------- 
G----------4----------4---------4h6-------------------------------------------------------------------------------- 
D------------------------------------------------------------------------------------------------------------------------ 
A------------------------------------------------------------------------------------------------------------------------ 
E------------------------------------------------------------------------------------------------------------------------ 

*whichever chord you are playing leave top E and B open* 

E                                                   F# 
Waiting here for the workin' day to end 
E                                                            F# 
Five O'Clock and those walls just move in closer 
A                                                        B 
You get home so down and worn out - it's understood. 
F#                    B 
it fits you good, 
F#                    B 
it fits you good. 
F#                    B 
it fits you good, 
F#                    B 
it fits you good 

Was a' time you were bringin' me down, 
Well I know it's just the way you look at life. 
But you don't know like I know baby, 
I did all that I could. 
Fits you good, 

(chorus) 

E------------------------------------------------------------------------------------------------------------------------ 
B------------------------------------------------------------------------------------------------------------------------ 
G-----------------6--8--8--8--8---6/8--8------8---------------------------------------6---8---9-9-9-9-9-9-9-9-9-9- 
D----6---8---9-------------------------------------11---9---6/8---11---8\6---8---9---------------------------------- 
A------------------------------------------------------------------------------------------------------------------------ 
E ------------------------------------------------------------------------------------------------------------------------ 

  (16 times in total!)                                                                       hold.......... 

E--------------------------------------------------------------------------------------------------9-------------------- 
B--------------------------------------------------------------------------11-------------9--11-----9--11---11--9----
G-9-9-9-9-9-9----9--8--6--8--6-------------------------------------11---------9--11-----------------------------9-
D-----------------------------------9---9/11---11--11---9--8---11---------------------------------------------------
A------------------------------------------------------------------------------------------------------------------------
E------------------------------------------------------------------------------------------------------------------------ 
  
E----11--11--11---9---9---9---7--7--7---6--7---9--9--9-----12p9------9-------------9--12--11--9------9------
B----12--12--12--11--11--11--9--9--9---7--9--11-11-11----------11------11p9---------------------12------------
G-------------------------------------------------------------------------------------11--------------------------------
D------------------------------------------------------------------------------------------------------------------------
A------------------------------------------------------------------------------------------------------------------------
E------------------------------------------------------------------------------------------------------------------------ 

E------------------------------------------------------------------------------------------------------------------------
B--12--11--9--11--9-------9----------------------------------------------------------11---11--11---------------
G-----------------------11------9---11---8---9-------8---------------------11--11-------------------------------
D--------------------------------------------------11-----9---11---8---11-----------------------------------------
A------------------------------------------------------------------------------------------------------------------------
E------------------------------------------------------------------------------------------------------------------------ 

Powrót