Strona główna
Newsy
Biografia
Dyskografia
Teledyski
Książki
Artykuły, wywiady
Galeria
Teksty piosenek
Znaczenia piosenek
Koncerty
Zdjęcia autorstwa BA
FAQ
Księga gości


AUTORZY:
Margo
& (webmaster):
Victoria

© 2002
Akordy i tabulatory


When You Love Someone 


Intro: 
E--------------------------------------------------------------------------------------------------------------------------
B---5h8--8/10----10p8---8-----------------5h8--8/10--10/12p10---8--------------------------------------------------
G------------------------------5h7--7/9-----------------------------------5h7--7/9--------------------------------------
D--------------------------------------------------------------------------------------------------------------------------
A--------------------------------------------------------------------------------------------------------------------------
E-------------------------------------------------------------------------------------------------------------------------- 

         C                    G 
When you love some, you'll do anything 
          Am7                  G         F 
You'll do all the crazy things, that you can't explain 
       C                   F 
You'll shoot the moon, put out the sun, 
         C              G   G/A   G/B 
When you love someone. 

You'll deny the truth, believe a lie 
There'll be times that you believe, that you can really fly 
But your lonely nights, have just begun, 
When you love someone 
  

            Am          Am7           C 
   When you love someone, you feel it deep inside 
       Am           G           C 
   And nothin' else, could ever change your mind 
            F                      Dm7 
   When you want someone, when you need someone, 
            G 
   When you love someone. 

E--------------------------------------------------------------------------------------------------------------------------
B---5h8--8/10----10p8---8-----------------5h8--8/10--10/12p10---8----------------12h13--12----5h8--8/10----10p8
G------------------------------5h7--7/9-----------------------------------5h7--7/9--------------------------------------
D--------------------------------------------------------------------------------------------------------------------------
A--------------------------------------------------------------------------------------------------------------------------
E-------------------------------------------------------------------------------------------------------------------------- 
  
E--------------------------------------------------------------------------------------------------------------------------
B---8--------------------------------------------------------------------------------------------------------------------
G-------5h7--7/9----9/10-----10-10--9--9--7--7----------------------------------------------------------------------
D--------------------------------------------------------------------------------------------------------------------------
A--------------------------------------------------------------------------------------------------------------------------
E-------------------------------------------------------------------------------------------------------------------------- 

When you love someone, you'll sacrifice 
Give it everything you've got, and you won't think twice 
You'll risk it all, no matter what may come, 
When you love someone. 
  

F  Fm        C                   F 
      You'll shoot the moon, put out the sun, 
               C 
      When you love someone. 

Powrót