Strona główna
Newsy
Biografia
Dyskografia
Teledyski
Książki
Artykuły, wywiady
Galeria
Teksty piosenek
Znaczenia piosenek
Koncerty
Zdjęcia autorstwa BA
FAQ
Księga gości


AUTORZY:
Margo
& (webmaster):
Victoria

© 2002
Akordy i tabulatory


I'll Always Be Right There 


Intro 1: 
E-----------------------------------5---------------------------------------------------------------5-------------------5- 
B------------2---3---------5-------------3-----------3----2-----------------2---3--------5--------------3-------3----5- 
G------------2----------------------------2----------------2----2-----------2----------------------------2------------2- 
D-------2---------------------------------4-----4----------2------------2--------------------------------4------------2- 
A---0----------------0---------0---------0----------------0--------0----------------0--------0----------0----0-------0- 
E-------------------------------------------------------------------------------------------------------------------------- 

Verse 1: 

E----------0----------------------------------0--------------------------------0---------------------------------------- 
B----0--------0-------------------2-----0-------0------------------2-----0------0-----------------2-------------0-- 
G-----------------1------------2--------------------1-----------2-------------------1-----------2------2------2------ 
D----2----------------------2-----------2-------------------2------------2-------------------2---------0---0--------- 
A-----------------------0--------------------------------0--------------------------------0----------------------------- 
E-------------------------------------------------------------------------------------------------------------------------- 

E-----------------------------------------------0------------------------------------------------------------------------- 
B---------------0----------------------2---3------3----------------2------------------------------------------2------ 
G-----------1-----------------------2----------------4----------2---------------2-------------1---------2------------- 
D-------2------------2-----------2---------------------------2--------------4-------------2----------4----4--------- 
A--------------------2--------0------------2-------------4--------------5-------------2-----------4----------------- 
E---0--------------------4-------------------------------------------------------------0-------------------------------- 

E-------------------------------------------------------------------------------------------------------------------------- 
B---------------0------------------0------------------------------------------------------------------------------------- 
G-----------2------------------1----------------------------------------------------------------------------------------- 
D-------4-----------------2---------------------------------------------------------------------------------------------- 
A---5-------------------------------------------------------------------------------------------------------------------- 
E--------------------0---------------------------------------------------------------------------------------------------- 

Chorus 1: 

E-----------------------------------------------------------------5------------------------------------------------------- 
B----7----5----2---3h5p3--2---------------------0----7----5------------------------------------------------0------- 
G----7----6----2------------------------------2--------7----6-----------------2--------------------------1--------- 
D------------------------------------2-----4--------------------------------2-------------2-----------2--------------- 
A----5----4----0----------------4------5---------------5----4------------------------4------4---------------------- 
E------------------------------------------------------------------------2----------2--------------0-------------------- 

E-------0----------------------------------0-----------------------------------0------------------------------------------ 
B----------0-------------------2-------------0--------------------2--------------0---2----0------------------------0---- 
G--1----------1---------2--------2----1--------1----------2---------2----1---------2---------2--1------------2-------- 
D--0-----------------2-----2----------0----------------2-----2------------0--------------------------------4------------ 
A-----------------4---------------------------------4--------------------------------0------------------5---------------- 
E-------------------------------------------------------------------------------------------------------------------------- 

E-------------------0----------------------------------------------------------------------------------------------------- 
B---------------0--------------------------------------------------------------------------------------------------------- 
G-----------1------------------------------------------------------------------------------------------------------------- 
D-------2----------------------------------------------------------------------------------------------------------------- 
A-------------------------------------------------------------------------------------------------------------------------- 
E---0--------------------------------------------------------------------------------------------------------------------- 
  
Intro 2: 

E-------------------------------------------------------------------------------------------------------------------------- 
B-----------2---3----------5-------5----3--------3----2------------------------------------------------------------- 
G-----------2----------------------------2-------------2---------------------------------------------------------------- 
D-------2--------------------------------4----4--------2--------------------------------------------------------------- 
A---0----------------0---------0--------0--------------0-------------------------------------------------------------- 
E-------------------------------------------------------------------------------------------------------------------------- 

Verse 2: 

E--------0----------------------------0------------------------------0--------------------------------------------------- 
B---0-------0---------------2----0------0------------------2----0-----0-----------------2---------------0--------- 
G--------------1---------2------------------1-----------2----------------1-----------2---------------2---------------- 
D---2-----------------2----------2------------------2-----------2----------------2---------------4------------------- 
A------------------0-----------------------------0----------------------------0---------------5------------------------ 
E-------------------------------------------------------------------------------------------------------------------------- 

E-------------------0----------------------------------------0----------------------------------------------------------- 
B---------------0---------------------------------2-----3-------3------------------2---------------------------0----- 
G-----------1---------------------------------2--------------------4-----------2---------------2------------1-------- 
D-------2---------------2---------2-------2--------------------------------2---------------4------------2----------- 
A-----------------------2------2-------0---------------2---------------4---------------5----------------------------- 
E---0----------------------4-------------------------------------------------------------------------0------------------ 

Chorus 2: 

E-------------------------------------------------------------------------5----------------------------------------------- 
B---7-------7-------5----------------------------------0-----7----5---------------------------------2---------------0- 
G-------7------7----6------------2----------------2---------7-----6-----------------2-----------2---------------1---- 
D-----------------------------4-----------4---------------------------------------2------------2--------------2-------- 
A---5---------------4-----4-----------5-----5---------------5-----4----------4------------------------------------- 
E------------------------------------------------------------------------------------------2---------------0------------- 

E-------0-----------0------------------------------------0---------------------------------0--------------------------- 
B----------0----------0--------------------2---------------0---------------------2-----------0---2---0------------- 
G---1-----------1-------1-----------2--------2------1--------1------------2----------1----------2------2--1------ 
D---------------0----------------2-----2--------2---0------------------2-----2-------0----------------------------- 
A-----------------------------4-------------------------------------4-----------------------------0--------------------- 
E-------------------------------------------------------------------------------------------------------------------------- 

E-------------------------------------------------------------------------------------------------------------------------- 
B---------------0----------------0---------------------------------------------------------------------------------------- 
G-----------2----------------1------------------------------------------------------------------------------------------- 
D-------4----------------2----------------------------------------------------------------------------------------------- 
A----5-------------------------------------------------------------------------------------------------------------------- 
E--------------------0---------------------------------------------------------------------------------------------------- 

Solo: 

E-----------5---------4-------2----4p2----0---------------------------------0----------------0--------------------- 
B-----------7---------5-------3------------2----------2-----------2------2---------2---0--------0---2-------------- 
G---6--7---7---------4-------2------------2-----4\2-----------2-----2----------2--------------------2------------- 
D----------------0--------0----------------2----------4----4----------------------------2----------------------------- 
A------------------------------------------------------------------------------------------------------------------------ 
E-------------------------------------------------------------------------------------------------------------------------- 

E------------------------------------------------------------------------------5------------------------------------------ 
B----------------2h3p2---------------------------------------------------5----------------------------------------------- 
G------------------------------1-------------------------------------2--------------------------------------------------- 
D--------2--2-------------2-------2-----------------------------2----------------------------------------------------- 
A---0--------------------------------2----0--------2--0-----0-------------------------------------------------------- 
E----------------------------------------------4-------------------------------------------------------------------------- 

Chorus 3: 

E-------------------------------------------------------------------------------------5----------------------------------- 
B---7--------7-----5----2---3h5p3--------------------------0-----7-------7----5-----------------------------0------- 
G------------------6----2----------------------2---------2-------------7--------6---------------2----------2--------- 
D--------7--------------------------------4-----------4---------------------------------------2----------2------------ 
A---5--------------4----0------------4------------5---------------5------------4--------------------------------------- 
E------------------------------------------------------------------------------------------2-----------0----------------- 

E-----------------------0-------------0----------------------------------------0------------------------------------0--- 
B--------------0----------0-------------0--------------------2-------------------0----------------------2------0-----0- 
G----------1-------1---------1----1-------1----------2---------2--------1----------1-----------2---------2----------- 
D-------2--------------------------0---------------2-----2---------2-----0-------------------2-----2----------0----- 
A-----------------------------------------------4------------------------------------------4----------------------------- 
E---0--------------------------------------------------------------------------------------------------------------------- 

E------------------------------------------------------0-----------0--------------------------------------------0------- 
B---2---0----------------------0------------------0-----0-----0-----0--------------------------------2----0------0-- 
G---2------2--1------------2------------------1------------------------1--------------2------2h4--------------------1- 
D----------------------4------------------2--------------------0-----------0-------2-----2-----------------0----------- 
A---0--------------5------------------------------------------------------------4--------------------------------------- 
E-------------------------------------0----------------------------------------------------------------------------------- 

E---------------------------------0---------------------------------------------------------------------------------------- 
B----------------2----------0-------0---2----0--------------------0---------------0---------------------------------- 
G---------2---------2-------------------2--------2--1---------2----------------1---------------------------------------- 
D------2-----2--------2-------------------------------------4---------------2------------------------------------------ 
A---4-----------------------------------0----------------5------------------------------------------------------------- 
E---------------------------4--------------------------------------------0----------------------------------------------- 

Outro: 

E------------------------------------------------------------------------5------------------------------------------------ 
B------------2---3----------5---------5----3-----------------------5-------------------------------------------------- 
G------------2------------------------------2--------2---------2------------------------------------------------------- 
D--------2----------------------------------4----4----------2------------------------------------------------------------ 
A----0-----------------0---------0---------0------------0------------------------------------------------------------- 
E-------------------------------------------------------------------------------------------------------------------------- 

Powrót