Strona główna
Newsy
Biografia
Dyskografia
Teledyski
Książki
Artykuły, wywiady
Galeria
Teksty piosenek
Znaczenia piosenek
Koncerty
Zdjęcia autorstwa BA
FAQ
Księga gości


AUTORZY:
Margo
& (webmaster):
Victoria

© 2002
Akordy i tabulatory


Getaway 


Capo on 3rd fret! 
*Although capo is on 3rd, it doesn't change to the open chord in tab, ie. 3rd fret still is 3rd fret. * 

Intro and verse:                                                                            Bridge: 

      C          D         F         C                    Drove all night....               F(2)       x3      G 

E-------------------------------------------------------------------5---5--------------3----------------------- 
B---5-------7------10------5------3--5---------------------------6---6---------------3----------------------- 
G---5-------7------10------5------3--5---------------------------3---5---------------4----------------------- 
D---5-------7------10------5------3--5---------------------------3---3---------------5----------------------- 
A---3-------3------3-------3------3--3------------------------------------------------5----------------------- 
E --------------------------------------------------------------------------------------3------------------------ 
  
  
  
C 
drove all night form new york city 
D 
in your best friend's car 
F 
knocked on my door about five thirty 
C 
nursing a broken heart 
C 
still got your keys in your back pocket 
D 
still got your jacket on 
F 
back door's oben baby - I don't lock it 
C 
we can leave anytime we want 
  
Bridge: 
F(2) 
I got my motor runnin' - fingers drummin' 
                            G 
I never planned to stay 
  
F(2) 
getaway - ya know it's now or never 
*C                                                             *pull of on 6th fret of A 
getaway - nobody lives forever 
D                                    F                            C 
we're only waitin' just to make our getaway 
  
  
hey baby we were good together  
seemed like you'd always be my girl 
but looking back now we were just too clever 
thinking love could change the world 
  
ya know there's no point in waitin' hesitating 
we gotta leave today 

Solo *USE SLIDE*: 

       *hold on 10th here for a while and very gradually slide to 6th 

                                           [let ring........] 

E--------------------------------------------------------------------8---6/8-------8---------------------------------
B--10/6*-----6--5/8--8\5------5--------------------------------8-------------8-------------------------------------
G---------------------------5------5/7-----7/10--10-10-10-9---------------------------------------------------------
D--------------------------------------------------------------------------------------------------------------------------
A--------------------------------------------------------------------------------------------------------------------------
E-------------------------------------------------------------------------------------------------------------------------- 

Powrót