Strona główna
Newsy
Biografia
Dyskografia
Teledyski
Książki
Artykuły, wywiady
Galeria
Teksty piosenek
Znaczenia piosenek
Koncerty
Zdjęcia autorstwa BA
FAQ
Księga gości


AUTORZY:
Margo
& (webmaster):
Victoria

© 2002
Akordy i tabulatory


On A Day Like Today 


Intro (same for chorus, almost): 

        Am   /  /   (B)   C   /     C    C/B    (x4)     G   /  C9       G  /  /  /  G/F    Em  going into verse 

E----0--------------0-------0----0------------3-----3------3-------3------0----------------------------------- 
B----1--------------2-------2----0------------3-----3------3-------3------0--------------------------------------- 
G----2--------------0-------0----0------------0-----0-----0--------0------0---------------------------------------- 
D----2--------------2-------2----2------------0-----2-----0--------0------2-------------------------------------- 
A----0----------2---3-------3----3------------2----3------2-------0-------2------------------------------------ 
E----------------------------3----3------------3-----------3-------2-------0------------------------------------------- 

Em G C                G 
free is all you gotta be 
Em     G         C                    G 
dream dreams no one else can see 
Em    G    C                    G 
sometimes ya wanna run away 
Em                                            C9                        D 
but ya never know what might be comin' round your way 
ya ya ya 
  
Am 
on a day like today 
C 
the whole world could change 
G 
the sun's gonna shine 
D 
shine thru the rain 
Am                        (B) C 
on a day like today 
    C C/B C C/B C C/B C C/B G     C9 G 
ya never wanna see the sun go down 
   C C/B C C/B C C/B C C/B G      C9 G    G G/F 
ya never wanna see the sun go down 
  
*after ..go down...use slide to slide from 16th fret to the 12th on G* 

somewhere - there's a place for you 
I know that you believe it too 
sometimes if you wanna get away 
all ya gotta know is what we got is here to stay 
all the way 
  
  
on a day like today - the whole world could change 
the sun's gonna shine - shine thru the rain 
on a day like today - no one complains 
free to be pure - free to be sane 
on a day like today 
ya never wanna see the sun go down 
ya never wanna see the sun go down 
  
Solo *USE SLIDE* : 

        Am         C            Em        G 

E-------------------------------------------------------------------------------------------------------------------------- 
B----------------------------------------------------15------------------------------------------------------------------- 
G---16/14----16/14----14/12----14/12---12/16---------------------------------------------------------------------------- 
D-------------------------------------------------------------------------------------------------------------------------- 
A-------------------------------------------------------------------------------------------------------------------------- 
E-------------------------------------------------------------------------------------------------------------------------- 

Am 
free is all we gotta be 
C 
dream dreams no one else can see 
Em 
but ya never know what might be comin' for you and me 
D 
ya it's gonna be 

Powrót