Strona główna
Newsy
Biografia
Dyskografia
Teledyski
Książki
Artykuły, wywiady
Galeria
Teksty piosenek
Znaczenia piosenek
Koncerty
Zdjęcia autorstwa BA
FAQ
Księga gości


AUTORZY:
Margo
& (webmaster):
Victoria

© 2002
Akordy i tabulatory


Fearless 


Capo on 3rd fret!!! 
Intro:    Am                        Em                   G            F                F        G        x2 
  

E-----------------0------------------0---------3----------1----1------3----------------------------------------- 
B-------------1------1-----------0------------3----------1-----1-----3---------------------------------------- 
G----------2------------------0---------------0----------2-----2-----0-------------------------------------------- 
D------2--------------------------------------0----------3-----3-----0------------------------------------------- 
A------0------------------2---------------2---------3----------3-----2------------------------------------------ 
E--------------------------0---------------3---------1---------1-----3------------------------------------------ 
  
  
  
Am   Em               Am                   Em 
it's 3 am - and i'm lying here next to you 
                                G      F     F G 
what cha gonna do? 
Am                Em                   Am                                        Em 
will you tell a story - when he asks you where the hell you've been 
                                     G       F 
or will you tell the truth? 
  
F       G        Am                          Em 
i ain't holdin' back - i know where i stand 
G                             F 
i just want to be with you 
F           G          Am                 Em 
ya gotta face the fact - baby i'm your man 
G                                    F 
i've gotta get it through to you 
      F   G 
i'm fearless 

Solo: *here i'm saying that although the capo is on the 3rd fret still is the 3rd fret* 

                                                                                                        on these bends, bend up 1 tone, but don't play it, just play 
                                                                                                        it as you release the bend, listen to the cd and you'll know 
                                                                                                        what i mean! 

E-----3----3-----3-----3------3--------0---------0--------------------------------------------------------------
B--------------------------------------------------------------------------------------------------------------------------
G--5----7----8-----7------8------10---------------------------8---10b--10b---10b--10b---8--------------------------
D--------------------------------------------10--------10----------------------------------------10----------------------
A--------------------------------------------------------------------------------------------------------------------------
E-------------------------------------------------------------------------------------------------------------------------- 
  
you don't have to hide - you don't have to share half your life 
with some other guy 
baby we're so strong - and it's been going on so long  
it's time to make it rifht - want you to spend the night 
  
  
i ain't holdin 'back - i know where i stand 
u just want to be with you 
ya gotta face the fact - babe i'm your man 
i've gotta get it through to you 
i'm fearless 

Solo: *here i'm saying that although the capo is on the 3rd fret still is the 3rd fret* 

     Am                        Em                                   G                              F 

                     *bend 1 1/2 tone, the release to 1 then all the way  down 

E--------------------------------------------------------------------------------------------------------------------------
B--11--13---13b*---11--11h13--11p13-------------------------------8-------8-----------------------------------
G-------------------------------------------10---8--8/10---10---10------10------8----------------------------------
D--------------------------------------------------------------------------------------10--8--8h10--8h10---10-----
A--------------------------------------------------------------------------------------------------------------------------
E-------------------------------------------------------------------------------------------------------------------------- 
  
    Am                     Em                                                          G                                                F 

                                                    [pinch harmonics.......]                                      *bend B string 1/2 tone 
                                                                                                                            *bend G string 1 tone 

E--------------------------------------------------------------------------------------------------------------------------
B---------------------------------------------------------------------------------*10b--------------------------------------
G---7--8--8---10----------------7--7--8--8---10--10-----8--10p8---------8--*10b---8h10------------------------
D--------------------8h10--10------------------------------------------10-----------------------------------------------
A--------------------------------------------------------------------------------------------------------------------------
E-------------------------------------------------------------------------------------------------------------------------- 

(chorus) 

Outro solo from where vocals cut out: *here i'm saying that although the capo is on the 3rd fret still is the 3rd fret* 

                                                                                                                                                             *only half a tone 

E---15----15-----15---15----15-------8------8h11p8------8h11p8------8h11p8------8h11p8-------*10b--10--------
B---18b---18b---18b--18b--18b---8-----8-------------8-------------8------------8-------------8---------------11-
G--------------------------------------------------------------------------------------------------------------------------
D--------------------------------------------------------------------------------------------------------------------------
A--------------------------------------------------------------------------------------------------------------------------
E-------------------------------------------------------------------------------------------------------------------------- 

E---------------------------------------------------8---8----------------------------------------------------------------
B--11--11---8--11--------------------------------8---8----------------------------------------------------------------
G----------------------/10---10---8--------10b------------10--8-----------------------------------------------------
D--------------------------------------10---------------------------------------------------------------------------------
A--------------------------------------------------------------------------------------------------------------------------
E-------------------------------------------------------------------------------------------------------------------------- 

Powrót