Strona główna
Newsy
Biografia
Dyskografia
Teledyski
Książki
Artykuły, wywiady
Galeria
Teksty piosenek
Znaczenia piosenek
Koncerty
Zdjęcia autorstwa BA
FAQ
Księga gości


AUTORZY:
Margo
& (webmaster):
Victoria

© 2002
Akordy i tabulatory


I'm A Liar 


*B.B.S = Bend Slightly Sharp 
Intro: Em G Asus4 A x2 

D                        Bm 
maybe i told you right from the start 
Fm 
you can have me 
Bm 
but you can't have my heart 
Em                        G                                Asus4 A 
it's easy enough to say but i couldn't care less 
D                                           Bm 
ya i mighta told you you were on my mind 
Fm                   Bm 
guess i talked a pretty good line 
Em                          G 
but hey i can talk all day 
Asus4                A 
but i just can't confess 
  
            D 
that i'm a liar 
        G               D 
i'm a victim of desire 
D                         G 
i'm a moth into the fire 
G                           Asus4          A 
i'm over my head - forget what i said 
(same as before) 
tell ya i'm a liar 
i'm just walking on the wire 
i couldn't get much higher 
i'm over my head - forget what i said 
                    Em    G    Asus4 A x2 
baby i'm a liar 
  
when i told you i was hard to pin down 
ya know i was just messin around 
guess you know bynow that's just my way 
and if you want some storeis  - well i got a few 
but hey - this is the truth i swear to you 
how many more times do you want me to say... 

(chorus) 

       *B.B.S            B.B.S            B.B.S              B.B.S                         x2                                    x4 

E------------------------------------------------------------------------------|--------12------------|---------------------- 
B---12--12--------12--12--------12--12--------12--12----14b--14b-------|------------15p12----|-------------------- 
G---12--12--------12--12--------12--12--------12--12----14b--14b-------|--14b----------------|----------------------- 
D------------14-------------14-------------14-------------------------------|----------------------|----------------------- 
A-----------------------------------------------------------------------------|----------------------|------------------------ 
E -----------------------------------------------------------------------------|----------------------|------------------------- 

       *B.B.S            B.B.S            B.B.S              B.B.S 

E---------------------------------------------------------------------------------------------------------------------------- 
B---12--12--------12--12--------12--12--------12--12----14b--14b------------------------------------------------------ 
G---12--12--------12--12--------12--12--------12--12----14b--14b----------------------------------------------------- 
D------------14-------------14-------------14----------------------------------------------------------------------------- 
A---------------------------------------------------------------------------------------------------------------------------- 
E ---------------------------------------------------------------------------------------------------------------------------- 

Em 
if i told ya to go away 
G                                            Asus4 A 
baby you can't believe a thing i say 
listen.... 

Powrót