Strona główna
Newsy
Biografia
Dyskografia
Teledyski
Książki
Artykuły, wywiady
Galeria
Teksty piosenek
Znaczenia piosenek
Koncerty
Zdjęcia autorstwa BA
FAQ
Księga gości


AUTORZY:
Margo
& (webmaster):
Victoria

© 2002
Akordy i tabulatory


If I Had You 


Intro:   hold and let ring.... 
E------2------------2-------------------------------------------------------------------------------------------------- 
B---------3------------3----------------------------------------------------------------------------------------------- 
G------------------------------------------------------------------------------------------------------------------------ 
D------------------------------------------------------------------------------------------------------------------------ 
A------------------------------------------------------------------------------------------------------------------------ 
E------------------------------------------------------------------------------------------------------------------------ 

                   A G                                A 
if i was blind - you could make me see 
                     G                                   Em   G 
if i was down - you could  comfort me 
                            A G                            A 
well i ain't got a lot - but what i got is true 
                             Em        G    A 
there's nothihg that i can't do - if i had you 
A                               G                        A 
i could walk on water - i could dance on air 
A                G                Em   G 
go any place - go anywhere 
 A                                      G                            A 
could climb the empire state - and the rockies too 
                             Em            G    A 
there's nothihg that i can't do -if i had you 
  
                 Em G                                A 
if i had you - for what else could pray? 
            A   Em                            G    Em 
if i had you - i could make my way 
A                G                    A 
the sun is up - the sky is blue 
                            Em         G    A 
there's nothing that i can't do - if i had you 

E---9-9-9-9-9-9-9-9-9--7-7-7-7-7-7-7-7-7-7-7-7--10-10-10-10-10-10-10-10-10-10-10-10--9-9-9-9-9-9-9-9-9-9-9 
B--------------------------------------------------------------------------------------------------------------------------- 
G--------------------------------------------------------------------------------------------------------------------------- 
D--------------------------------------------------------------------------------------------------------------------------- 
A--------------------------------------------------------------------------------------------------------------------------- 
E--------------------------------------------------------------------------------------------------------------------------- 

E--7-7-7-7-7-7-7-7-7-7-7-7--10-10-10-10-10-10-10-10-10-10-10-10--9-9-9-9--12-12-12-12--17-17-17-17------
B---------------------------------------------------------------------------------------------------------------------------
G---------------------------------------------------------------------------------------------------------------------------
D---------------------------------------------------------------------------------------------------------------------------
A---------------------------------------------------------------------------------------------------------------------------
E--------------------------------------------------------------------------------------------------------------------------- 
  
if i had you, - for what else could i plead? 
if i had you - i'd have all i need 
the sun is up - the sky is blue 
there's nothing that i can't do - if i had you 
there's nothing that i can't do - if i had you 

Powrót