Strona główna
Newsy
Biografia
Dyskografia
Teledyski
Książki
Artykuły, wywiady
Galeria
Teksty piosenek
Znaczenia piosenek
Koncerty
Zdjęcia autorstwa BA
FAQ
Księga gości


AUTORZY:
Margo
& (webmaster):
Victoria

© 2002
Akordy i tabulatory


She Believes In Me 


      F      G 
                hold..................... 

E----5-------------7---------------------------------------------------------------------------------------------------- 
B----6--------8--------8-----------------------------------------------------------------------------------------------  
G----5----7----------------7-------------------------------------------------------------------------------------------  
D----3------------------------------------------------------------------------------------------------------------------  
A-----------------------------------------------------------------------------------------------------------------------  
E------------------------------------------------------------------------------------------------------------------------ 

Verse 1: 
A 
I'm tossing and turning 
I can't get to sleep 
F#m 
got something on my mind 
I just can't release 
D                                            E 
then she whispers so softly that she believes in me 

E----------------------------------------------------------------------------------------------------------------------- 
B----10-10---9-9--7--7--9-----------------------------------------------------------------------------------------  
G------------------------------9---------------------------------------------------------------------------------------  
D----------------------------------------------------------------------------------------------------------------------- 
A-----------------------------------------------------------------------------------------------------------------------  
E------------------------------------------------------------------------------------------------------------------------ 

if I let her down and try to disguise it 
she always sees rite thru it, 
always replies it 
no matter what I do , she believes in me 

Chorus: 
A                        E 
all the time I have failed, 
        F#m               D 
gone slightly off the rails 
Bm                                 E 
she's there to remind me, she believes in me 
A                    E                F#m                 D 
when it all goes wrong and I feel I'm on my own 
Bm                                 E 
she's there to remind me, she believes in me 

now don't get me wrong, 
I'm not some kind of fool 
I'd give her my world if she asked me to 
cos there's no denying, she believes in me 

yeah but I'm only human, I'm just a guy 
that sometimes makes mistakes and I can't explain why 
well some says she's crazy, cos she believes in me 

all the time I've failed 
gone slightly off the rails 
she's there to remind me that she believes in me 
when it all goes wrong and I feel I'm on my own 
she's there to remind me that she believes in me 

yeah she's there to remind me that she believes in me 
yeah she's there to remind me that she believes in me 

Powrót