Strona główna
Newsy
Biografia
Dyskografia
Teledyski
Książki
Artykuły, wywiady
Galeria
Teksty piosenek
Znaczenia piosenek
Koncerty
Zdjęcia autorstwa BA
FAQ
Księga gości


AUTORZY:
Margo
& (webmaster):
Victoria

© 2002
Akordy i tabulatory


Run To You 


Capo 2nd fret! 
Verse riff: 

E--------------------------------------------------------------------------------------------------------------------- 
B--------------------------------------------------------------------------------------------------------------------- 
G--------------------------------------------------------------------------------------------------------------------- 
D---------2---------2-----------------2------------2----------------------------------------------------------------- 
A------4---------4-----4----------4------------6------6------------------------------------------------------------- 
E---2---------2------------2---5----------5/7-------------7--------------------------------------------------------- 

Verse 1: 

she says her love for me could never die 
but that'd change if she ever found out about you and i 
oh - but her love is cold 
it wouldn't hurt her if she didn't know, 'cause... 

Bridge 1: 
D 
when it gets too much 
E 
i need to feel your touch 

Chorus: 
                F#m        A  E  B 
i'm gonna run to you 
                F#m        A  E  B 
i'm gonna run to you 
                        F#m        A             E              B 
cause when the feelin's right i'm gonna run all night 
               F#m        A  E 
i'm gonna run to you 

Veres 2: same as verse 1 
she's got a heart of gold she'd never let me down 
but you're the one that always turns me on 
you keep me comin' 'round 
i know her love is true 
but it's so damn easy makin' love to you 

Bridge 2: same as bridge 1 
i got my mind made up 
i need to feel your touch 

(Chorus) 

Solo: play twice 

E----6h7---6-------------4h5---4----------2h3--2----------4h5--4----------------------------------------------------- 
B-------------7---------------------5----------------3----------------5------------------------------------------------ 
G----------------6---------------------4----------------2----------------4-------------------------------------------- 
D-------------------------------------------------------------------------------------------------------------------------- 
A-------------------------------------------------------------------------------------------------------------------------- 
E-------------------------------------------------------------------------------------------------------------------------- 

(Chorus) 

Powrót