Strona główna
Newsy
Biografia
Dyskografia
Teledyski
Książki
Artykuły, wywiady
Galeria
Teksty piosenek
Znaczenia piosenek
Koncerty
Zdjęcia autorstwa BA
FAQ
Księga gości


AUTORZY:
Margo
& (webmaster):
Victoria

© 2002
Akordy i tabulatory


(Everything I Do) I Do It For You 


Capo on 1st fret! 
Intro: 
C | G | F | Gsus4 G 

Verse1: 
C                            G 
Look into my eyes - you will see 
F                           G 
What you mean to me 
                   C                           G 
Search your heart - search your soul 
                       F                           Gsus4      G 
And when you find me there you'll search no more 

Chorus: 
Dm                                   C     Dm 
Don't tell me it's not worth tryin' for 
C            Dm                          C     Dm 
You can't tell me it's not worth dyin' for 
                      C                       G                    C 
You know it's true Everything I do - I do it for you 

Verse 2: 
Look into my heart - you will find 
There's nothin' there to hide 
Take me as I am - take my life 
I would give it all - I would sacrifice 

Chorus: 
Don't tell me it's not worth fightin' for 
I can't help it - there's nothin' I want more 
Ya know it's true Everything I do - I do it for you 

Middle 8: 
Bb                           Eb 
There's no love - like your love 
            Bb                       F 
And no other - could give more love 
           C                        G 
There's nowhere - unless you're there 
          D                 G 
All the time - all the way 

Solo: 
                                   hold......... 
                     F                                                                C                                                                    F 
E----------------------------------------------------------------------------------------------------------------9-------- 
B---4--6--------------------------------------------------------------------------------9-9------------9/11-------11-11- 
G---------1--3------8/10--------8/10---8--6---3/6----(6)/8--------------6-6----8/10-------10p8\6--------------------  
D---------------------------------------------------------------------6/8------------------------------------------------ 
A-------------------------------------------------------------------------------------------------------------------------- 
E-------------------------------------------------------------------------------------------------------------------------- 

                                                  pre-bend of 1/2 tone then release 
        C 
E-------------------------------------------------------------------------------------------------------------------------- 
B--------11\9--(9)/11----------------------------------------------------------------------------------------------------- 
G-----------------------8/10-----8-8-8----6--------------------------------------------------------------------------- 
D-------------------------------------------------------------------------------------------------------------------------- 
A-------------------------------------------------------------------------------------------------------------------------- 
E-------------------------------------------------------------------------------------------------------------------------- 

                      Dm                                  G 
Oh - you can't tell me it's not worth tryin' for 
           Dm                                       G 
 I can't help it - there's nothin' I want more 
             C                        G 
 I would fight for you - I'd lie for you 
              F                              Fm 
Walk the wire for you - ya I'd die for you 
                    C                       G    F  Dm            C 
Ya know it's true Everything I do - oh -  I do it for you 

Powrót