Strona główna
Newsy
Biografia
Dyskografia
Teledyski
Książki
Artykuły, wywiady
Galeria
Teksty piosenek
Znaczenia piosenek
Koncerty
Zdjęcia autorstwa BA
FAQ
Księga gości


AUTORZY:
Margo
& (webmaster):
Victoria

© 2002
Akordy i tabulatory


When You're Gone 


Dm F C G 
Dm        G 
i've been wandering around the house all night 
C 
wondering what the hell to do 
Dm    G      C 
i'm trying to concentrate but all i can think of is you 
Dm         G 
well the phone don't ring cuz my friends ain't home 
C 
i'm tired of being all alone 
Dm            Bb  G 
got the tv on cuz the radio's playing songs that remind me of you 
  
Dm        F                                C G 
baby when you're gone - i realize i'm in love 
Dm     F            C  G 
the days go on and on - and the nights just seem so long 
        Dm   F         C     G 
even food don't taste that good - drink ain't doing what it should 
Dm       Bb    G 
things just feel so wrong - baby when you're gone 
  
  
i've been driving up and down these streets 
trying to find somewhere to go 
ya i'm lookin' for a familiar face but there's no one i know 
this is torture - this is pain - it feels like i'm gonna go insane 
i hope you're coming back real soon -cuz i don't know what to do 

(chorus) 
  
    Dm             F 

                                                               (pick sting 4 times whilst releasing)                                       B.B.S 
E----8-----------------------------5----------------------------------------------------------------------------------- 
B------8--------------------------------8------------------------------------------------------------------------------- 
G-----------7b--7—7p5---7b------------7b----7----5--5------5--7p5--7--7--7---5---7b---7--5------5------------- 
D------------------------------------------------------------7----------------------------------------7----------------- 
A------------------------------------------------------------------------------------------------------------------------ 
E------------------------------------------------------------------------------------------------------------------------ 

E--------------------------------------8------8---8--8---8--8--8---8---8--8--8--8----------------------------------- 
B-----------------------------------------8---10-10-10--8--8--10-10--8--8--10-8-------------8--8--8--8-10-8-10- 
G-------------------5-------------/9--------------------------------------------------7--5--7b------------------------ 
D---7p5---------5--5h7---5\3---------------------------------------------------------------------------------------- 
A---------6h7---------------------------------------------------------------------------------------------------------- 
E----------------------------------------------------------------------------------------------------------------------- 

E--8--10b--8--8----------10------10--10--10-----------------------------------8--8--8---8---8-------------------
B------------------10/13------13----------------11--11--11--11--11--10--10--8--8--10--10--8--------------------
G----------------------------------------------------------------------------------------------------7--5--7-7b-5-7-
D-----------------------------------------------------------------------------------------------------------------------
A-----------------------------------------------------------------------------------------------------------------------
E----------------------------------------------------------------------------------------------------------------------- 

(chorus) 

                            Dm   Bb                        F 
baby when you're gone - baby when you're gone

Powrót