Strona główna
Newsy
Biografia
Dyskografia
Teledyski
Książki
Artykuły, wywiady
Galeria
Teksty piosenek
Znaczenia piosenek
Koncerty
Zdjęcia autorstwa BA
FAQ
Księga gości


AUTORZY:
Margo
& (webmaster):
Victoria

© 2002
Akordy i tabulatory


Back To You (live) 


Intro: C Am F G x2 
*use slide* 

E------------------------------------------------------------------------------------------------------------------------ 
B----8/13---13\10---10\---5/6--6--6--6--6\5---13\12---12\10---10\8------------------------------------------------- 
G------------------------------------------------------------------------------------------------------------------------ 
D------------------------------------------------------------------------------------------------------------------------ 
A------------------------------------------------------------------------------------------------------------------------ 
E------------------------------------------------------------------------------------------------------------------------ 

C                        Am 
I've been down - I've been beat 
F                            G 
I've been so tired - that I could not speak 
C                        Am 
I've bin so lost that I could not see 
F                            G 
I wanted things that were out of reach 
C                                    Am 
Then I found you and you helped me through 
             F                           G 
And ya showed me what to do 
F                                           E 
That's why I'm comin' back to you... 

Am                               F                        G 
Like a star that guides a ship across the ocean 
                        Am                      F                    G 
That's how your love can take me home back to you 
            Em                    Am                        Em                    Am 
And if I wish upon that star - that someday I'll be where you are 
Dm                                Gsus4            G 
I know that day is comin soon - ya I'm comin back to you 

Play intro again 

(same as before) 
You've been alone but ya did not show it 
You've been in pain when I did not know it 
You let me do what I needed to - you were there when I needed you 
Mighta let you down - mighta messed you round 
But ya never changed your point of view 
That's why I'm comin' back to you... 
(chorus) 

E------------------------------------------------------------------------------------------------------------------------ 
B----8/13---13\10---10\---5/6--6--6--6--6\5---3/5--3----3--5--6---8/13---15---17---13/15---13---8/10---------- 
G------------------------------------------------------------------------------------------------------------------------ 
D------------------------------------------------------------------------------------------------------------------------ 
A------------------------------------------------------------------------------------------------------------------------ 
E------------------------------------------------------------------------------------------------------------------------ 

E------------------------------------------------------------------------------------------------------------------------ 
B---13--13\12----12\10---10\8---6--5---------------------------------------------------------------------------- 
G------------------------------------------5---5--------------------------------------------------------------------- 
D------------------------------------------------------------------------------------------------------------------------ 
A------------------------------------------------------------------------------------------------------------------------ 
E------------------------------------------------------------------------------------------------------------------------ 

(chorus) 

Outro: 
Chords are Am | F | Gsus4 | G 

Use slide! 
        Am F Gsus4 G      Am                  F                         Gsus4  G        Am           F                Gsus4           G 
E------------------------------------------------------------------------8\5--5-5--8\5---5-5---0-5-7-8-7--0-5-7-8-7--- 
B--5/10---10\8-------8\5-5/6\5--------5/6\5------------------------------------------------------------------------------ 
G----------------------------------5/7---------5/7---5---4/5\4---2-------------------------------------------------------- 
D------------------------------------------------------------------------------------------------------------------------ 
A------------------------------------------------------------------------------------------------------------------------ 
E------------------------------------------------------------------------------------------------------------------------ 

                                                                      hold........................................... 
       Am                                F                                   Gsus4                           G                      Am 
E---12/13\12----------------12/13\12-----------------------17----------17---------17\------0-20-0-20-0-20-0-20-- 
B--------------12--12/13---------------12--12/13---15/17------15/17------15/17-(17)\------------------------------- 
G------------------------------------------------------------------------------------------------------------------------ 
D------------------------------------------------------------------------------------------------------------------------ 
A------------------------------------------------------------------------------------------------------------------------ 
E------------------------------------------------------------------------------------------------------------------------ 

     F                                  Gsus4                          G                                  Am                              F 
E--0-20-0-20-0-20-0-20-0-20-0-20-0-20-0-20-0-20-0-20-0-20-0-20-0-20-0-20-0-20-0-20-0-20-0-20-0-20-0-20- 
B------------------------------------------------------------------------------------------------------------------------ 
G------------------------------------------------------------------------------------------------------------------------ 
D------------------------------------------------------------------------------------------------------------------------ 
A------------------------------------------------------------------------------------------------------------------------ 
E------------------------------------------------------------------------------------------------------------------------ 
  

     Gsus4                           G    Am       F                                  Gsus4                G       Am                        F 
E--0-20-0-20-0-20-0-20--20/(32)\----0-17-0-15-0-13-0-12-0-10-0-8-0-7-0-5----------------12/17-------------- 
B---------------------------------------------------------------------------------------13\10-10----------13\10-10--- 
G------------------------------------------------------------------------------------------------------------------------ 
D------------------------------------------------------------------------------------------------------------------------ 
A------------------------------------------------------------------------------------------------------------------------ 
E------------------------------------------------------------------------------------------------------------------------ 

                    Gsus4 G 
E---12/17---5\-------------------------------------------------------------------------------------------------------- 
B------------5\---------------------------------------------------------------------------------------------------------- 
G------------------------------------------------------------------------------------------------------------------------ 
D------------------------------------------------------------------------------------------------------------------------ 
A------------------------------------------------------------------------------------------------------------------------ 
E------------------------------------------------------------------------------------------------------------------------ 

Powrót