Strona główna
Newsy
Biografia
Dyskografia
Teledyski
Książki
Artykuły, wywiady
Galeria
Teksty piosenek
Znaczenia piosenek
Koncerty
Zdjęcia autorstwa BA
FAQ
Księga gości


AUTORZY:
Margo
& (webmaster):
Victoria

© 2002
Akordy i tabulatory


On Christmas Day 


Intro: 
1   2      3 4  1            2   3     4 
D D9 D | Dsus4 D D9 D D   x2 
D | G | A | F#m | G | D A | D D9 D | Dsus4 D D9 D D 

Lead guitar: 
                D                 G                  A            F#m 
E-------------------------------------------------------------------------------------------------------------------------- 
B---3/(8)-8--7----------------------------------------------------------------------------------------------------------- 
G----------------7------------7-7---6--7--9-------------------------------------------------------------------------------- 
D-------------------7--9-----------------------9p7---9p7------------------------------------------------------------------- 
A-------------------------------------------------------------------------------------------------------------------------- 
E-------------------------------------------------------------------------------------------------------------------------- 

Verse 1: 

                  G                D 
It's been so long, I'm so tired 
                    A                  Bm 
I worked so hard, I feel so wild 
        G                        D                       A 
I just need to wake up in your arms and see you smile 
             G                    D                     A                Bm 
I see the lights upon the tree like angels calling up to me 
       G                     D                    C 
So I say a prayer I'll be with you in just a while... 

Chorus: 

        D                        G 
It's a lonely time of the year 
                 A                       F#m 
If you ain't got that someone near 
                   G               D                       A 
That's why I need to be there with you in every way 
            D                  G                                A                            Bm 
It's that time for make believe, so make your wish this Christmas' Eve 
                 G 
And I'll be comin' home 
     D        A              D D9 D | Dsus4 D D9 D D | D D9 D | Dsus4 D D9 D D 
To you on Christmas day 

Verse 2: same as verse 1 
It's been hard, I missed your touch 
I've never missed someone that much 
now December is here and I can't get you off my mind 
Christmas day is on the way 
I swear this time it's you to stay 
So you can count the hours 
While I'm counting down the miles... 

(Chorus) 

Solo: 
Chords: 
D | G | A | F#m | G | D | A | A 
D | G | A | Bm | G | D A | D 

Lead: 
                                                                                                           hold........................................................... 
                D                 G                  A             F#m                              G                  D                    A 
E-------------------------------------------------------------------------------------------------------------------------- 
B---------8-7--------------------------------------------------------------3-------------7--------------5-------3------ 
G----7h9--------7------------7-7---6--7--9---------------------------------4-------------7-------4/6-----6\4---------- 
D-------------------7--9-----------------------9p7---9p7--------4h5--5-------5----/7------7--------------------------- 
A-------------------------------------------------------------------------------------------------------------------------- 
E-------------------------------------------------------------------------------------------------------------------------- 

                                                                                                           hold........................................................... 
                                D              G            A        Bm                           G               D            A      D 
E-------------------------------------------------------------------------------------------------2------------------------- 
B--------------------8-7-------------------------------------------------3-----------7------5---3---------------------- 
G---4p2--2---7h9--------7--------7-7---6--7--9b--9p7------------------4---------------------2------------------------ 
D----------------------------7--9-------------------------------4h5--5------5---/7------7-------0----------------------- 
A-------------------------------------------------------------------------------------------------------------------------- 
E-------------------------------------------------------------------------------------------------------------------------- 

(Chorus) quiet 

Outro: same as chorus 
Na na na na na na na, na na na na na na naaa... 
Yeah I'll be coming home to you on Christmas Day! 
Na na na na na na na, na na na na na na naaa... 
                                                                      D D9 D | Dsus4 D D9 D D | 
Yeah I'll be coming home to you on Christmas Day! 
                D D9 D | Dsus4 D D9 D D 
Christmas Day! 
                D D9 D | Dsus4 D D9 D D | D 
Christmas Day! 

Powrót