Strona główna
Newsy
Biografia
Dyskografia
Teledyski
Książki
Artykuły, wywiady
Galeria
Teksty piosenek
Znaczenia piosenek
Koncerty
Zdjęcia autorstwa BA
FAQ
Księga gości


AUTORZY:
Margo
& (webmaster):
Victoria

© 2002
Akordy i tabulatory


I Will Always Return 


Capo 3rd fret! (so G = Bb) 
Verse 1: 
  G          D      C 
I hear the wind call your name 
   Em        D      C 
It calls me back home again 
   Am                D        G                  C 
It sparks up the fire - a flame that still burns 
              G         C        D 
Oh it's to you I'll always return 

Riff: 

(D)               G  D  C                G  D C 
E------6--5--6-----------8--5--6--------------------------------------------------------------------------------------- 
B---6------------------6------------------------------------------------------------------------------------------------- 
G-------------------------------------------------------------------------------------------------------------------------- 
D-------------------------------------------------------------------------------------------------------------------------- 
A-------------------------------------------------------------------------------------------------------------------------- 
E-------------------------------------------------------------------------------------------------------------------------- 

Verse2: same as Verse 1 
I still feel your breath on my skin 
I hear your voice deep within 
The sound of my lover - a feeling so strong 
It's to you - I'll always belong 

Verse 3: 
           C           G        Em 
Now I know it's true 
               Am               G       D 
My every road leads to you 
       C             G                Em 
And in the hour of darkness darlin' 
        Am  G          D 
Your light gets me through 

Bridge: 
            C                 G            Em 
Wanna swim in your river - be warmed by your sun 
C                  G                 A               B 
Bathe in your waters - cos you are the one 

Chorus: 
  C                    G               Em              Bm 
I can't stand the distance - I can't dream alone 
  C                 G                Am            D 
I can't wait to see you - Ya I'm on my way home 

Solo: 

(D)               Em  D  C            G    D     C                  Em  D  C 
E------6--5--6----------6-6-6-6--6/8---5------6--5--6---5--3--------------------------------------------------- 
B---6-------------------6-6-6-6-------------6-------------6--4-------------------------------------------------------- 
G-------------------------------------------------------------------------------------------------------------------------- 
D-------------------------------------------------------------------------------------------------------------------------- 
A-------------------------------------------------------------------------------------------------------------------------- 
E-------------------------------------------------------------------------------------------------------------------------- 

(Verse 1) 

(Bridge) 

Chorus: 
  C                    G               Em              Bm 
I can't stand the distance - I can't dream alone 
  C                 G                Am            D                    C 
I can't wait to see you - Ya I'm on my way home 

Verse 4: 

               Em D C 
I hear the wind  call your name 
       Em           D           C 
The sound that leads me home again 
   Am                D        G                             Am 
It sparks up the fire - a flame that still burns 
D                               Em D      C 
I'm on my way - I will al - ways return 
               Em D         C 
Yes I will al - ways return 
      Am            D                     G              C 
I've seen every sunset and with all that I've learned 
         G            C            Dsus4 D        G 
It's to you I will always - al___  ways return 

Powrót