Strona główna
Newsy
Biografia
Dyskografia
Teledyski
Książki
Artykuły, wywiady
Galeria
Teksty piosenek
Znaczenia piosenek
Koncerty
Zdjęcia autorstwa BA
FAQ
Księga gości


AUTORZY:
Margo
& (webmaster):
Victoria

© 2002
Akordy i tabulatory


Get Off My Back 


Capo on 1st fret! (so G=G#, but for tab 6 = 6 still, so 1 = open string) 
Intro: 

    G             F            C              Bb                    x2 
E---------------------------------------------------|----------------------------------------------------------- 
B--------4------2--------2----------2-----(2)/4----|-------------------------------------------------------------- 
G---------------------------------------------------|-------------------------------------------------------------- 
D--6-6------4-----4--3-----3----4----4-----------|------------------------------------------------------------- 
A---------------------------------------------------|----------------------------------------------------------- 
E---------------------------------------------------|----------------------------------------------------------- 

Verse 1: 
              G                         F           C 
Well you think that you can take me on 
       Bb        G        F  C  Bb 
You must be crazy 
          G                F                C 
There ain't a single thing you've done 
          Bb     G               F  C  Bb 
That's gonna phase me 
            G                   F        C      Bb 
Oh, but if you want to have a go 
G                  F        A 
I just want to let you know - yeah 

Chorus: 
                 D            C         G 
Get off my back and into my game 
       A            D           C            G 
Get out of my way and out of my brain 
       A          D         C                     G     A 
Get outta my face or give it you best shot 
  C                                               A 
I think it's time you better face the fact 
Get off my back 

Keyboard Riff: 

    G            F        C      Bb          G              F        C      Bb 
E------------------------------------------------------------------------------------------------------------- 
B------------------------------------------------------------------------------------------------------------- 
G-------1-----1-----1-----1---6---------1-----1-----1------------------------------------------------------ 
D----------4-----4-----4--------------------4-----4-----4--------------------------------------------------- 
A----3--------------------------------3----------------------------------------------------------------------- 
E--4-------------------------------4--------------------------------------------------------------------------- 

Verse 2: same as Verse 1 
You know it's all just a game that I'm playing 
Don't think that you can't find a way in 
That's what I'm saying 
Oh if you want to have a go 
I just want to let you know... 

(Chorus) 

Solo: 
b = bend half tone 
b = pre-bend half tone 
BSS = bend slightly sharp 

                                                                               G    F        C             Bb        G             F                 C 
     hold....................................................               vibrato.                                                                            BSS 
E-------------------------------------------|--------4-4-4-4--1-4---4----4---4---4---4--4--4---4--4------------------- 
B-----4-4-4-----3h4-----4-4-4------3h4--|-----4--4-4-4-4--1-6b--6b--6b--6b--6b-6b-6b-6b-6b-6b---7p4-----4--4- 
G-------------3-------------------3--------|--3------------------------------------------------------------------6--6--6b- 
D--1-------------------1-------------------|------------------------------------------------------------------------------- 
A-------------------------------------------|------------------------------------------------------------------------------- 
E-------------------------------------------|------------------------------------------------------------------------------- 

       G        F        C               Bb         G                     F                             C                        Bb           G (start of bridge) 
E---4-4-4--7---7----4--7-6--7-6--4--7p6p4-----7--------7-7---9--11---11----11---11---11---11--11---------------- 
B---4-4-4--6b--6b--4--7-6--7-6--4-----------7--7--------7-7------------14b--14b--14b--14b-14b-14b--------------- 
G-------------------------------------------------------10b--------------------------------------------------------------- 
D------------------------------------------------------------------------------------------------------------------------- 
A------------------------------------------------------------------------------------------------------------------------- 
E------------------------------------------------------------------------------------------------------------------------- 

Bridge: 
            G                   F        C      Bb 
Oh, but if you want to have a go 
G                  F        A        Fill 1 
I just want to let you know - get off - get off - yeah 

Fill 1: 

  
        get off - get off - yeah - get off my back.... 
                          BSS 
E-----------------------------------11---11--11---11-------------------------------------------------------------- 
B----------------------6------------14b-14b-14b-14b-------------------------------------------------------------- 
G-----------------3---8b----------------------------------------------------------------------------------------------- 
D------------------------------------------------------------------------------------------------------------------------- 
A------------------------------------------------------------------------------------------------------------------------- 
E------------------------------------------------------------------------------------------------------------------------- 

(Chorus) 

Outro: same chords as chorus 

Powrót