Strona główna
Newsy
Biografia
Dyskografia
Teledyski
Książki
Artykuły, wywiady
Galeria
Teksty piosenek
Znaczenia piosenek
Koncerty
Zdjęcia autorstwa BA
FAQ
Księga gości


AUTORZY:
Margo
& (webmaster):
Victoria

© 2002
Akordy i tabulatory


Nothing I've Ever Known  


Tune guitar down a semitone, ie. to Eb 
* finger pick all tab 
E/Eb 
0 
0 
1 
1 
2 
0 

Intro: 

E------------------------------------------------------------------------------------------------------------------------ 
B-------9--10----------9--9--------9---7-------5p3--5----------2--3------3---3-----2----0-------------------------- 
G---11------------------------6-6---------------------6-----2-4----4----4------2------------------------1----------- 
D---------------11-11----------------------7-7-------6-------------4--4--------2--2-------2------2-----2----------- 
A-----------9--------------7------------5-------------4-------------2-----------0-----------2---2----2--2----------- 
E---------------------------------------------------------------------------------------------0------------0----------- 

Verse 1: 

E------------------------------------------------------------------------------------------------------------------------ 
B--2------2---3-------3---5-------5----------------------2---3--------3---3-----2---0------------------------------- 
G--2----2-----------1-----------4-----2-------2----2--4-----2------------------------------------1------------------ 
D--2--2-------2--2--------6--6-------4-----4----------------4------4------2--2------2-----2------------------------ 
A--0----------2------------4----------4---4----------------------5---------0----------2--2----2--------------------- 
E----------------------------------------------------------------------------------------0------------------------------- 

E------------------------------------------------------------------------------------------------------------------------ 
B-----------------------------5p3--5----------------------0-2--3---------3-------2p0---2--------------------------- 
G---------2------4-----------------------6---2-----2---2-------------4------------------------2---2----------------- 
D--4-------------6-----6-----------6--6-----4------------------4--4---------------------2--2---2----2-------------- 
A--5---5----5---7---7-----4-------4--------4---4--------------2--------------2---------0--------------0----------- 
E---------------------------------------------------------------------------0------------------------------------------- 

                                                                                                                                                       Start of chorus: 
E--------------------------------------------------------------------------------------------------|----------------------- 
B-----------------------5p3--5-------------------0-2---0---------------------0------------------|------5-4-5------ 
G--------2------4-----------------------2------2------------------------1--2-----2--------------|--------------------- 
D--4------------6------------6------6--4----------------------2-----2------------2------2-------|---6---------------- 
A--5--5----5---7---4--------4---4-----4---4-----------2---2---2---2------------0---0-----0-0-|-------------------- 
E----------------------------------------2---------------0------------0---------------------------|--------------------- 

Verse 1 lyrics: 
Right now I feel - just like a leaf on a breeze 
Who knows where it's blowin' 
Who knows where it's goin' 
I find myself somewhere I - I never thought I'd be 
Going round in circles 
Thinking about you and me 
How do I expalin it when I don't know what to say 
What do I do now - so much has changed 

Chorus: 
C#m                F#m                    F#m        B         E 
Nothing I have ever known - has made me feel this way 
E                     E/Eb                C#m       F#m      Bsus4 B 
Nothing I have ever seen - has made me want to stay 
G#m   C#m F#m  B   Esus4 E 
Here I am - ready for you 
C#m         F#m          A 
I'm turnin', I'm fallin' - I hear my home callin' 
Bsus4                                           B              A 
Hey - I've never felt somethin's so strong - oh no 
                                     E 
It's like nothing I've ever known 

Verse 2: 
A                          Bm7 
You're the one I'm looking for 
C#m                  F#m 
You're the one I need 
D                           A              Esus4        E 
You're the one that gives me - a reason to believe 
D                E      C#m                           F#m 
Following a star - has lead to where you are 
Esus4               E        A 
It feels so stong now - this can't be wrong now 

(Chorus - repeat last line) 

Verse 3: 
F#m           C#m G#sus4            C#m 
Right now I feel - like a leaf on a breeze 
D/F#                          C#m 
Who knows where it's blowin' 
G#sus4        G#                     G#sus4 G# G#sus4 G# 
Who knows where I'm goin' 

Powrót